Song name
# A B C D E F G H I J K L M N O P Q R S T U V W X Y Z

Sammy Hagar - High Hopes tab

#----------------------------------PLEASE NOTE---------------------------------#
#This file is the author's own work and represents their interpretation of the #
#song. You may only use this file for private study, scholarship, or research. #
#------------------------------------------------------------------------------##
Date: Tue, 7 Nov 1995 15:17:41 -0500 (EST)
From: Michael Rees 
Subject: Sammy Hagar / High_Hopes.tab

High Hopes
Sammy Hagar-Unboxed
tabbed by Mike Rees

tune down half step

/ or \ -slide


intro

------------------|
------------------|
-3-5-3-0-0-3-3-0--|
-3-5-3-0-0-3-3-0--|
------------------|
------------------|

riff 1

-----------------|
-----------------| keep repeating this riff
-----------------|
-----------------|
3\5-5-5/3\5-5-5--|
1\3-3-3/1\3-3-3--|


riff 2
--------------------------------------------------|
--------------------------------------------------|
-------------------------3-5-3-0-0-3-3-0----------|
-------------------------3-5-3-0-0-3-3-0----------|
-3\5-5-5/3\5-5-5/3\5-5-5-----------------3\5-5-5--|
-1\3-3-3/1\3-3-3/1\3-3-3-----------------1\3-3-3--|


riff 3

--------------------------------------------------------------------------|
--------------------------------------------------------------------------|
----------------------------------------------------------3-5-3-0-0-3-3-0-|
-7---7---------------10----10---------------------7---7---3-5-3-0-0-3-3-0-|
-5-7-5-7--7-7-7-7-7---8-10--8-10--10-10-10-10-10--5-7-5-7-----------------|
---5---5--5-5-5-5-5------8-----8---8--8--8--8--8----5---5-----------------|

riff 3(con't)
------------------|
------------------|
-3-5-3-0-0-3-3-5--|
-3-5-3-0-0-3-3-5--|
------------------|
------------------|

riff 4

---------------|
---------------|   put this riff where ever it feels right
-5-5-3-0-------|
-5-5-3-0-------|
---------------|
---------------|


Another Dream Goes Up In Smoke!


      enjoy,
        -Mike
Tap to rate this tab
# A B C D E F G H I J K L M N O P Q R S T U V W X Y Z