Song name
# A B C D E F G H I J K L M N O P Q R S T U V W X Y Z

Sammy Hagar - Cant Get Loose tab

e|--------------------------------------------------------------------------|
B|------------------------------------------------------br10----------------|
G|--------------------------------7óbr9-------------------------------------|
D|-----------6------9------6-7-9--------------------------------------------|
A|--5-/-7--7---7--7ó--7--7--------------------------------------------------|
E|--------------------------------------------------------------------------|

e|-b12-b12-br12---9-10-12p-10p ---------------------------------------------
B|-------------------------------9------------------------------------------|
G|----------------------------------10--------------------------------------|
D|--------------------------------------9-----------------------------------|
A|-----------------------------------------7--------------------------------|
E|--------------------------------------------------------------------------|

e|---------br12------16-17---19pó17p-16--------------------12---------------|
B|--------------------------------------17----------------------------------|
G|---br9-------------------------------------13--14----b11------------------|
D|--------------------------------------------------------------------------|
A|--------------------------------------------------------------------------|
E|--------------------------------------------------------------------------|



************************************

| /   slide up
| \   slide down
| h   hammer-on
| p   pull-off
| ~   vibrato
| +   harmonic
| x   Mute note
| b   Bend
| pb  Pre-bend
| br  Bend release
| pbr Pre-bend release
| brb Bend release bend

************************************
Tap to rate this tab
 
# A B C D E F G H I J K L M N O P Q R S T U V W X Y Z