Song name
# A B C D E F G H I J K L M N O P Q R S T U V W X Y Z

Sammy Hagar - Three Lock Box tab

-----------------------------------------------------------------------------
                                  
                Three Lock Box  - Sammy Hagar (GUITAR)
            
-----------------------------------------------------------------------------
Tabbed by: Scotto10

Tuning: Standard

This is a very tricky song when you REALLY look at it. time signature changes
and tempo changes all over the place. The solo is not that interesting so I 
didn't put a 100% effort into it. Sorry

=============================================================================

Guitar



                     S  S S S S E.  E  E     S  S S S S E.  S  S E    
E||-------|-------|-----------------------|--------------------------|
B||-------|-------|-----------------------|--------------------------|
G||-------|-------|---------2---2---------|---------2---2------------|
D||-------|-------|---------2---2---------|---------2---2------------|
A||-------|-------|--3b-0---0---0---------|--3b-0---0---0---3b-0-----|
E||-------|-------|-----------------0--3--|----------------------3b--|


  S S S S S E.  S  S S  S    S S S S S E.  S  S S  S    S  S S S S E.  E  E   
--------------------------|--------------------------|-----------------------|
--------------------------|--------------------------|-----------------------|
--------2---2-------------|--------2---2-------------|---------2---2---------|
--------2---2-------------|--------2---2-------------|---------2---2---------|
--------0---0---3b-0------|--------0---0---3b-0------|--3b-0---0---0---------|
--3-5----------------3p-0-|--3-5----------------3p-0-|-----------------0--3--|


  S  S S S S E.  E   E      S S S S S E.  S  S S  S  
-------------------------|--------------------------|
-------------------------|--------------------------|
---------2---2-----------|--------2---2-------------|
---------2---2-----------|--------2---2-------------|
--3b-0---0---0---3b------|--------0---0---3b-0------|
---------------------3b--|--3-5----------------3b-0-|


  S  S S S S E.  S  S S  S    S  S S S S E.  E  E     S  S S S S E.  E   E    
---------------------------|-----------------------|-------------------------|
---------------------------|-----------------------|-------------------------|
---------2---2-------------|---------2---2---------|---------2---2-----------|
---------2---2-------------|---------2---2---------|---------2---2-----------|
--3b-0---0---0---3b-0------|--3b-0---0---0---------|--3b-0---0---0---3b------|
----------------------3p-0-|-----------------0--3--|---------------------3b--|


  S S S S S E.  S  S S  S    S  S S S S E.  S  S S  S    S S S S S S Q    E   
--------------------------|---------------------------|----------------------|
--------------------------|---------------------------|----------------------|
--------2---2-------------|---------2---2-------------|--2-----2-----2----L--|
--------2---2-------------|---------2---2-------------|--2-----2-----2----L--|
--------0---0---4p-0------|--3b-0---0---0---3p-0------|--0-----0-----0----L--|
--3-5----------------3b---|----------------------3p-0-|----------------------|


  H.              H        Q       H.              S  S S S S E.  E  E   
---------------|-----------2----|--L------------|-----------------------|
---------------|--3--------3----|--L------------|-----------------------|
--L------------|--0--------2----|--L------------|---------2---2---------|
--L------------|--0--------0----|--L------------|---------2---2---------|
--L------------|--x-------------|---------------|--3b-0---0---0---------|
---------------|--3-------------|---------------|-----------------0--3--|


  S  S S S S E.  S  S E      S  S S S S E.  E  E     S  S S S S E.  S  S S  S  
--------------------------|-----------------------|---------------------------|
--------------------------|-----------------------|---------------------------|
---------2---2------------|---------2---2---------|---------2---2-------------|
---------2---2------------|---------2---2---------|---------2---2-------------|
--3b-0---0---0---3b-0-----|--3b-0---0---0---------|--3b-0---0---0---3b-0-3b-0-|
----------------------3b--|-----------------0--3--|---------------------------|


  S  S S S S E.  E  E     S  S S S S E.  E  E     S  S S S S E.  S  S E    
-----------------------|-----------------------|--------------------------|
-----------------------|-----------------------|--------------------------|
---------2---2---------|---------2---2---------|---------2---2------------|
---------2---2---------|---------2---2---------|---------2---2------------|
---------0---0---------|--3b-0---0---0---------|--3b-0---0---0---3b-0-----|
--3s-5-----------0--3--|-----------------0--3--|----------------------3b--|


  S  S S S S E.  E  E      S S S S S S Q    E     H.            
------------------------|----------------------|---------------|
------------------------|----------------------|---------------|
---------2---2----------|--2-----2-----2----L--|--L------------|
---------2---2----------|--2-----2-----2----L--|--L------------|
--3b-0---0---0----------|--0-----0-----0----L--|--L------------|
-----------------0--3b--|----------------------|---------------|


  H        Q       H.              S  S S S S E.  E  E   
-----------2----|--L------------|-----------------------|
--3--------3----|--L------------|-----------------------|
--0--------2----|--L------------|---------2---2---------|
--0--------0----|--L------------|---------2---2---------|
--x-------------|---------------|--3b-0---0---0---------|
--3-------------|---------------|-----------------0--3--|


  S  S S S S E.  E   E      S  S S S S E.  E  E     S  S S S S E.  S  S S  S  
-------------------------|-----------------------|---------------------------|
-------------------------|-----------------------|---------------------------|
---------2---2-----------|---------2---2---------|---------2---2-------------|
---------2---2-----------|---------2---2---------|---------2---2-------------|
--3b-0---0---0---3b------|---------0---0---------|--3b-0---0---0---3b-0------|
---------------------3b--|--3s-5-----------0--3--|----------------------3b---|


  S S S S S S S S S E  S    H.              H        Q       H.            
-------------------------|---------------|-----------2----|--L------------|
-------------------------|---------------|--3--------3----|--L------------|
--2-----2-----2-----2----|--L------------|--0--------2----|--L------------|
--2-----2-----2-----2--L-|--L------------|--0--------0----|--L------------|
--0-----0-----0-----0--L-|--L------------|--x-------------|---------------|
-------------------------|---------------|--3-------------|---------------|


                  PM PM PM PM PM PM PM PM PM PM PM PM        
  H.              S  S  S  S  S  S  S  S  S  S  S  S  E  E   
--L------------|--------------------------------------------|
--L------------|--------------------------------------------|
--L------------|--------------------------------------------|
--L------------|--------------------------------------------|
---------------|--3--3--3--2--2--2--3--3--3--2--2--2--3--2--|
---------------|--------------------------------------------|


  S  S S S S E.  E  E     S  S S S S E.  E   E      S  S S S S E.  E  E   
-----------------------|-------------------------|-----------------------|
-----------------------|-------------------------|-----------------------|
---------2---2---------|---------2---2-----------|---------2---2---------|
---------2---2---------|---------2---2-----------|---------2---2---------|
--3b-0---0---0---------|--3b-0---0---0---3b------|---------0---0---------|
-----------------0--3--|---------------------3b--|--3s-5-----------0--3--|


  S  S S S S E.  S  S S  S    S  S S S S E.  E  E     S  S S S S E.  E   E    
---------------------------|-----------------------|-------------------------|
---------------------------|-----------------------|-------------------------|
---------2---2-------------|---------2---2---------|---------2---2-----------|
---------2---2-------------|---------2---2---------|---------2---2-----------|
--3b-0---0---0---3b-0------|--3b-0---0---0---------|--3b-0---0---0---3b------|
----------------------3b-0-|-----------------0--3--|---------------------3b--|


  S  S S S S E.  E  E     S  S S S S E.  S  S S  S    E  S E  S Q.     S E.   
-----------------------|---------------------------|-------------------------|
-----------------------|---------------------------|-------------------------|
---------2---2---------|---------2---2-------------|-------------------------|
---------2---2---------|---------2---2-------------|--2----2----2--------2---|
---------0---0---------|---------0---0---3b-0------|--0----0----0------L-0---|
--3s-5-----------0--3--|--3s-5----------------3b-0-|-------------------------|


  Q    S E.  E  E  S E.     Q    S E.  E  E  S E.     Q    S E.  E  E  S E.   
-------------------------|-------------------------|-------------------------|
-------------------------|-------------------------|-------------------------|
-------------------------|-------------------------|-------------------------|
---------------------2---|---------------------2---|---------------------2---|
--4----L-2---4-------0---|--4----L-2---4-------0---|--4----L-2---4-------0---|
--2----L-0---2-----------|--2----L-0---2-----------|--2----L-0---2-----------|


  Q    S E.  E  Q.        H.           E  E     Q    E  E  E  Q    E   
-----------------------|---------------------|------------------------|
-----------------------|------------------5--|--L----5-----5-------5--|
-----------------------|------------------4--|--L----4-----4-------4--|
-----------------------|------------------2--|--L----2-----2-------2--|
--4----L-2---4---------|------------------2--|--L----2-----2-------2--|
--2----L-0---2---------|------------------0--|--L----0-----0-------0--|


     PM PM PM PM PM PM                                   PM PM PM PM PM PM     
  E  E  E  E  E  E  E  E     Q    E  E  E  Q    E     E  E  E  E  E  E  E  E   
--------------------------|------------------------|--------------------------|
-----------------------5--|--L----5-----5-------5--|--L--------------------5--|
-----------------------4--|--L----4-----4-------4--|--L--------------------4--|
--L--------------------2--|--L----2-----2-------2--|-----------------------2--|
--L--------0--2--0-----2--|--L----2-----2-------2--|--L--------0--2--0-----2--|
--L--0--3-----------3--0--|--L----0-----0-------0--|--L--0--3-----------3--0--|


                              PM PM PM PM PM PM                              
  Q    E  E  E  Q    E     E  E  E  E  E  E  E  E     Q    E  E  E  Q    E   
------------------------|--------------------------|------------------------|
--L----5-----5-------5--|-----------------------5--|--L----5-----5-------5--|
--L----4-----4-------4--|-----------------------4--|--L----4-----4-------4--|
--L----2-----2-------2--|-----------------------2--|--L----2-----2-------2--|
--L----2-----2-------2--|--L--------0--2--0-----2--|--L----2-----2-------2--|
--L----0-----0-------0--|--L--0--3-----------3--0--|--L----0-----0-------0--|


     PM PM PM PM PM PM                                   PM PM PM PM PM PM     
  E  E  E  E  E  E  E  E     Q    E  E  E  Q    E     E  E  E  E  E  E  E  E   
--------------------------|------------------------|--------------------------|
-----------------------5--|--L----5-----5-------5--|-----------------------5--|
-----------------------4--|--L----4-----4-------4--|-----------------------4--|
-----------------------2--|--L----2-----2-------2--|-----------------------2--|
--L--------0--2--0-----2--|--L----2-----2-------2--|--L--------0--2--0-----2--|
--L--0--3-----------3--0--|--L----0-----0-------0--|--L--0--3-----------3--0--|


  Q    E  E  E  Q    E      W                                     
-------------------------|-------------------|-------------------|
--L----5-----5-----------|-------------------|-------------------|
--L----4-----4-----------|-------------------|-------------------|
--L----2-----2-----------|-------------------|-------------------|
--L----2-----2-----------|-------------------|-------------------|
--L----0-----0-------3b--|--L----------------|-------------------|


  Q.     Q.     Q.     Q.        W                         
------------------------------|-------------------|-------|
------------------------------|--3----------------|-------|
------------------------------|--2----------------|-------|
--2------4------5-------------|--0----------------|-------|
--0------2------3------5------|-------------------|-------|
-----------------------3------|-------------------|-------|


  S  S S S S S S S S E.  S  S S  S    S  S S S S E.  E  S  S  
-----------------------------------|-------------------------|
-----------------------------------|-------------------------|
---------2---2---2---2-------------|---------2---2-----------|
---------2---2---2---2-------------|---------2---2-----------|
--3b-0---0---0---0---0---3b-0------|--3b-0---0---0-----------|
------------------------------3p-0-|-----------------0--3p-0-|


  S  S S S S E.  E   E     S  S S S S E.  E  E     S  S S S S E.  S  S E    
------------------------|-----------------------|--------------------------|
------------------------|-----------------------|--------------------------|
---------2---2----------|---------2---2---------|---------2---2------------|
---------2---2----------|---------2---2---------|---------2---2------------|
---------0---0---3b-----|--3b-0---0---0---------|--3b-0---0---0---3b-0-----|
--3s-5---------------3--|-----------------0--3--|----------------------3b--|


  S  S S S S E.  E  E     S  S S S S E.  S  S E      S  S S S S E.  E  E   
-----------------------|--------------------------|-----------------------|
-----------------------|--------------------------|-----------------------|
---------2---2---------|---------2---2------------|---------2---2---------|
---------2---2---------|---------2---2------------|---------2---2---------|
--3b-0---0---0---------|--3b-0---0---0---3b-0-----|--3b-0---0---0---------|
-----------------0--3--|----------------------3b--|-----------------0--3--|


  S  S S S S E.  E   E     S  S S S S E.  E  E     S  S S S S E.  S  S E    
------------------------|-----------------------|--------------------------|
------------------------|-----------------------|--------------------------|
---------2---2----------|---------2---2---------|---------2---2------------|
---------2---2----------|---------2---2---------|---------2---2------------|
--3b-0---0---0---3b-----|---------0---0---------|--3b-0---0---0---3b-0-----|
---------------------3--|--3s-5-----------0--3--|----------------------3b--|


  S  S S S S E.  E  E     S  S S S S E.  S  S E      S  S S S S E.  E  E   
-----------------------|--------------------------|-----------------------|
-----------------------|--------------------------|-----------------------|
---------2---2---------|---------2---2------------|---------2---2---------|
---------2---2---------|---------2---2------------|---------2---2---------|
--3b-0---0---0---------|--3b-0---0---0---3b-0-3b--|---------0---0---------|
-----------------0--3--|--------------------------|--3s-5-----------0--3--|


  S  S S S S E.  S  S E      S  S S S S E.  E  E     S  S S S S E.  S  S S  S  
--------------------------|-----------------------|---------------------------|
--------------------------|-----------------------|---------------------------|
---------2---2------------|---------2---2---------|---------2---2-------------|
---------2---2------------|---------2---2---------|---------2---2-------------|
--3b-0---0---0---3b-0-----|--3b-0---0---0---------|--3b-0---0---0---3b-0------|
----------------------3b--|-----------------0--3--|----------------------3b-0-|


  S  S S S S E.  E  E     S  S S S S E.  S  S S  S    S  S S S S E.  S  S E    
-----------------------|---------------------------|--------------------------|
-----------------------|---------------------------|--------------------------|
---------2---2---------|---------2---2-------------|---------2---2------------|
---------2---2---------|---------2---2-------------|---------2---2------------|
---------0---0---------|--3b-0---0---0---3b-0------|--3b-0---0---0---3b-0-----|
--3s-5-----------0--3--|----------------------3b-0-|----------------------3b--|


  S  S S S S E.  E   E     S  S S S S E.  E  E     S  S S S S E.  Q     
------------------------|-----------------------|----------------------|
------------------------|-----------------------|----------------------|
---------2---2----------|---------2---2---------|---------2---2--------|
---------2---2----------|---------2---2---------|---------2---2--------|
--3b-0---0---0---3b-----|--3b-0---0---0---------|--3b-0---0---0---0----|
---------------------3--|-----------------0--3--|----------------------|


  S  S S S S E.  S  S S  S    S  S S S S E.  S  S S  S  
---------------------------|---------------------------|
---------------------------|---------------------------|
---------2---2-------------|---------2---2-------------|
---------2---2-------------|---------2---2-------------|
--3b-0---0---0---3b-0------|--3b-0---0---0---3b-0------|
----------------------3b-0-|----------------------3b-0-|


  S  S S S S E.  S  S S  S   
---------------------------||
---------------------------||
---------2---2-------------||
---------2---2-------------||
--3b-0---0---0---3b-0------||
----------------------3b-0-||




=============================================================================

Guitar lead



                             E.   S S  E.   Q       E.  S S E.  Q     
E||-------|-------|-------|----------------------|-------------------|
B||-------|-------|-------|------10---10~--------|-------------------|
G||-------|-------|-------|-------9----9~--------|------2---2--------|
D||-------|-------|-------|----------------------|------2---2--------|
A||-------|-------|-------|----------------------|-------------------|
E||-------|-------|-------|----------------------|-------------------|


  E.   S S  E.   Q       S  S S S S E.  E  E     S  S S  S S  E.   E   E    
----------------------|-----------------------|----------------------------|
------10---10~--------|-----------------------|---------10---10~-----------|
-------9----9~--------|---------2---2---------|----------9----9~-----------|
----------------------|---------2---2---------|----------------------------|
----------------------|--3b-0---0---0---------|--3b-0--------------3b------|
----------------------|-----------------0--3--|------------------------3b--|


  S S S S S E.  S  S S  S    S  S S  S S  E.   S  S S  S  
--------------------------|------------------------------|
--------------------------|---------10---10~-------------|
--------2---2-------------|----------9----9~-------------|
--------2---2-------------|------------------------------|
----------------3b-0------|--3b-0--------------3b-0------|
--3-5----------------3b---|-------------------------3p-0-|


  S  S S S S E.  E  E     S  S S  S S  E.   E   E      S S S S S E.  S  S S  S  
-----------------------|----------------------------|--------------------------|
-----------------------|---------10---10~-----------|--------------------------|
---------2---2---------|----------9----9~-----------|--------2---2-------------|
---------2---2---------|----------------------------|--------2---2-------------|
--3b-0-----------------|--3b-0--------------3b------|----------------3p-0------|
-----------------0--3--|------------------------3b--|--3-5----------------3b---|


  S  S S  S S  E.   S  S S  S    S S S S S S Q    E     H.            
------------------------------|----------------------|---------------|
---------10---10~-------------|----------------------|---------------|
----------9----9~-------------|--2-----2-----2----L--|--L------------|
------------------------------|--2-----2-----2----L--|--L------------|
--3b-0--------------3p-0------|--0-----0-----0----L--|--L------------|
-------------------------3p-0-|----------------------|---------------|


  H        Q       H.                              E.   S S  E.   Q             
-----------2----|--L------------|-------|-------|----------------------|-------|
--3--------3----|--L------------|-------|-------|------10---10~--------|-------|
--0--------2----|--L------------|-------|-------|-------9----9~--------|-------|
--0--------0----|--L------------|-------|-------|----------------------|-------|
--x-------------|---------------|-------|-------|----------------------|-------|
--3-------------|---------------|-------|-------|----------------------|-------|


  E.   S S  E.   Q               E.   S S  E.   Q             
----------------------|-------|------17---17---------|-------|
------10---10~--------|-------|------17---17~--------|-------|
-------9----9~--------|-------|----------------------|-------|
----------------------|-------|----------------------|-------|
----------------------|-------|----------------------|-------|
----------------------|-------|----------------------|-------|


  S S S S S S Q    E     H.              H        Q       H.                    
----------------------|---------------|-----------2----|--L------------|-------|
----------------------|---------------|--3--------3----|--L------------|-------|
----------------------|---------------|--0--------2----|--L------------|-------|
--7-----7-----7----L--|--L------------|--0--------0----|--L------------|-------|
--7-----7-----7----L--|--L------------|--x-------------|---------------|-------|
--5-----5-----5----L--|--L------------|--3-------------|---------------|-------|


          E.   S S  E.   Q               S S S S S S S S S E  S  
-------|----------------------|-------|-------------------------|
-------|------10---10~--------|-------|-------------------------|
-------|-------9----9~--------|-------|-------------------------|
-------|----------------------|-------|--7-----7-----7-----7--L-|
-------|----------------------|-------|--7-----7-----7-----7--L-|
-------|----------------------|-------|--5-----5-----5-----5--L-|


  H.              H        Q       H.              H.            
---------------|----------------|---------------|---------------|
---------------|----------------|---------------|---------------|
---------------|-----------7----|--L------------|--L------------|
--L------------|--5--------7----|--L------------|--L------------|
--L------------|--5--------5----|--L------------|--L------------|
--L------------|--3-------------|---------------|---------------|


  PM PM PM PM PM PM PM PM PM PM PM PM                                      
  S  S  S  S  S  S  S  S  S  S  S  S  E  E             H         S S  E    
--------------------------------------------|-------|---------------------|
--------------------------------------------|-------|-----------10---10\--|
--------------------------------------------|-------|------------9----9\--|
--------------------------------------------|-------|---------------------|
--3--3--3--2--2--2--3--3--3--2--2--2--3--2--|-------|---------------------|
--------------------------------------------|-------|---------------------|


  E.   S S  E.   Q               E.   S S  E.   Q       H         S S  E    
----------------------|-------|------17---17---------|---------------------|
------10---10~--------|-------|------17---17~--------|-----------10---10\--|
-------9----9~--------|-------|----------------------|------------9----9\--|
----------------------|-------|----------------------|---------------------|
----------------------|-------|----------------------|---------------------|
----------------------|-------|----------------------|---------------------|


  E.   S S  E.   Q               E  S E  S Q.     S E.   
----------------------|-------|-------------------------|
------10---10~--------|-------|-------------------------|
-------9----9~--------|-------|-------------------------|
----------------------|-------|--2----2----2--------2---|
----------------------|-------|--0----0----0------L-0---|
----------------------|-------|-------------------------|


  Q    S E.  E  E  S E.     Q    S E.  E  E  S E.     Q    S E.  E  E  S E.   
-------------------------|-------------------------|-------------------------|
-------------------------|-------------------------|-------------------------|
-------------------------|-------------------------|-------------------------|
---------------------2---|---------------------2---|---------------------2---|
--4----L-2---4-------0---|--4----L-2---4-------0---|--4----L-2---4-------0---|
--2----L-0---2-----------|--2----L-0---2-----------|--2----L-0---2-----------|


  Q    S E.  E  Q.        H.           E    E     H        Q      E    E   
-----------------------|-----------------------|--------------------------|
-----------------------|-----------------------|--------------------------|
-----------------------|------------------<>9--|--L--------L----<>7--<>9--|
-----------------------|-----------------------|--------------------------|
--4----L-2---4---------|-----------------------|--------------------------|
--2----L-0---2---------|-----------------------|--------------------------|


  Q    E   Q     E  E    E        Q    Q    E  E  E  E    
-------------------------------|-------------------------|
-------------------------------|---------------------8b--|
--L----L\-----------7--<>9brb--|--L------------7--9------|
----------------/9-------------|------------9------------|
-------------------------------|-------------------------|
-------------------------------|-------------------------|


  H.           E   E     H.              E   E     E  E  E  E  E  E  Q     
----------------------|-------------------------|-------------------------|
--L------------L\-----|-------------------------|-----------------8-------|
----------------------|-------------------------|-----7-----9--------9----|
----------------------|--7brb------------5--/9--|--L-----9-----9----------|
----------------------|-------------------------|-------------------------|
----------------------|-------------------------|-------------------------|


                             |---3--|                     
  Q    E  E  E  E  E   E     E   E  E  Q.      E  E   E   
--------------------------|------------------------------|
----------8---------------|------------------------------|
--L----9-----9--7--9p--7--|--------------------------/9--|
--------------------------|--9p--7--5--7b------7--5------|
--------------------------|------------------------------|
--------------------------|------------------------------|


  Q    E  Q.      E  E     Q    E  E.  E  E.  E     H         Q     Q      
------------------------|------------------------|------------------------|
-------8---------10-----|-------8----------------|------------------------|
--L-------9----------9--|--L-------9---9--7------|------------------------|
------------------------|---------------------9--|--7b--------5b----------|
------------------------|------------------------|------------------------|
------------------------|------------------------|------------------3b----|


                  Q.      Q.      Q.      Q.                              
-------|-------|---------------------------------|-------|-------|-------|
-------|-------|---------------------------------|-------|-------|-------|
-------|-------|--9b------9b------9b------7------|-------|-------|-------|
-------|-------|---------------------------------|-------|-------|-------|
-------|-------|---------------------------------|-------|-------|-------|
-------|-------|---------------------------------|-------|-------|-------|


  E.   S S  E.   Q       E.   S S  E.   Q               E.   S S  E.   Q     
----------------------|----------------------|-------|----------------------|
------10---10~--------|------10---10~--------|-------|------10---10~--------|
-------9----9~--------|-------9----9~--------|-------|-------9----9~--------|
----------------------|----------------------|-------|----------------------|
----------------------|----------------------|-------|----------------------|
----------------------|----------------------|-------|----------------------|


                  E.   S S  E.   Q       Q.     S   S    S     S     S     S    
-------|-------|------17---17---------|----------------------------------------|
-------|-------|------17---17~--------|----------------------------------------|
-------|-------|----------------------|---------5-<>7b-<>7pb-<>7pb-<>7pb-<>7pb-|
-------|-------|----------------------|----------------------------------------|
-------|-------|----------------------|----------------------------------------|
-------|-------|----------------------|----------------------------------------|


    S     S     E     H                   E.   S S  E.   Q     
-------------------------------|-------|----------------------|
-------------------------------|-------|------10---10~--------|
--<>7pb-<>7pb-<>7pbr--5--------|-------|-------9----9~--------|
-------------------------------|-------|----------------------|
-------------------------------|-------|----------------------|
-------------------------------|-------|----------------------|


  E.   Q.      S  S    S       S    S    S      S      Q       Q             
---------------------------|----------------------------------------|-------|
------20b--------20pb-20pb-|--20pb-20pb-20pb-<>20pb-<>20pb~---------|-------|
---------------------------|----------------------------------------|-------|
---------------------------|----------------------------------------|-------|
---------------------------|----------------------------------------|-------|
---------------------------|----------------------------------------|-------|


  E.   S S  E.   Q       E.    E     S S  S S S E      H.                      
----------------------|-----------------------------|---------------|---------|
------10---10~--------|-----------------------------|---------------|---------|
-------9----9~--------|------<>7pbr--5-7p-5-7-5-----|---------------|---------|
----------------------|-------------------------7\--|---------------|---------|
----------------------|-----------------------------|---------------|---------|
----------------------|-----------------------------|---------------|---------|


  E.   S S  E.   Q       E.    E     S S   E     S S   S   
----------------------|-----------------------------------|
------10---10~--------|-----------------------------------|
-------9----9~--------|------<>7pbr--5---<>7pbr--5---<>7b-|
----------------------|-----------------------------------|
----------------------|-----------------------------------|
----------------------|-----------------------------------|


    E     S S   E.     S Q                                       
-------------------------------|-------|-------|-------|-------||
-------------------------------|-------|-------|-------|-------||
--<>Lpbr--5---<>7pbr---5-------|-------|-------|-------|-------||
-------------------------7~----|-------|-------|-------|-------||
-------------------------------|-------|-------|-------|-------||
-------------------------------|-------|-------|-------|-------||



=============================================================================
Duration Legend
---------------
W - whole
H - half
Q - quarter
E - 8th
S - 16th
T - 32nd
X - 64th
. - note dotted
|-n-|  - n-tuplets


Tablature Legend
----------------
L - tied note
x - dead note
g - grace note
(n) - ghost note
> - accentuded note
NH - natural harmonic
AH - artificial harmonic
TH - tapped harmonic
SH - semi harmonic
PH - pitch harmonic
h - hammer on
p - pull off
b - bend
br - bendRelease
pb - preBend
pbr - preBendRelease
brb - bendReleaseBend
\n/ - tremolo bar dip
\n - tremolo bar dive
-/n - tremolo bar Release up
/n\ - tremolo bar inverted dip
/n - tremolo bar return
-\n - tremolo bar Release down
S - shift slide
s - legato slide
/ -  slide into from below or out of upwards
\ -  slide into from above or out of downwards
~ - vibrato
W - wide vibrato
tr - trill
TP - tremolo picking
T - tapping
S - slap
P - pop
< - fade in
^ - brush up
v - brush down
Tap to rate this tab
# A B C D E F G H I J K L M N O P Q R S T U V W X Y Z