Sampaguita - Nosi Balasi tab


----------------------------------------------------------10st10-----------|
----------------------------12p10-8-10-10/12----13/15\13----------13s15/17-|
-----------------------9-10------------------------------------------------|
----is9h10------9-10-12----------------------------------------------------|
------------12-------------------------------------------------------------|
---------------------------------------------------------------------------|


--------------------------20/22\20--17------------------------------------|
-20/22-20-20/22-20-20/22--------------20----------------------------------|
-----------------------------------------19/21\19--21st-19st-17-17h19-17--|
--------------------------------------------------------------------------|
--------------------------------------------------------------------------|
--------------------------------------------------------------------------|

--------------------------------------------------------------------------|
--20p17-20/*-----------------------8/10\8-(20)----------------------------|
--------------------7/9\7-------------------------------------------------|
--------------------------------------------------------------------------|
--------------------------------------------------------------------------|
--------------------------------------------------------------------------|


--------------------------------------------------------------------------|
---6st6p5----5--6p56p5----5---------------------6-------------------------|
-----------7------------7----5h7---4h5------5h7---------------------------|
----------------------------------------5h7-------------------------------|
--------------------------------------------------------------------------|
--------------------------------------------------------------------------|


-----13p12------12--13p12-13p12-----12--13p12-15p12------12---------------|
------------15-------------------15------------------15-----15s17-13s15---|
--------------------------------------------------------------------------|
--------------------------------------------------------------------------|
--------------------------------------------------------------------------|
--------------------------------------------------------------------------|


to be continued...
Tap to rate this tab
 
# A B C D E F G H I J K L M N O P Q R S T U V W X Y Z