Song name
# A B C D E F G H I J K L M N O P Q R S T U V W X Y Z

Sampdoria - Lettere Da Amsterdam Inno tab

Bella Samp e Bella Canzone. FORZA DORIA, la mia squadra del cuore.

E comincia...

E----------------------------------------------------------------|
B------------------11--------------------------------------------|
G--------------10-----8-7-8---------------15-14-15-14------------|
D-----------12--------------8----15----15-------------15---12-12-|
A--------13-------------------------17------------------15-------|
E--10-13---------------------------------------------------------|

E---------------------------------------------------|
B---------------------------------------------------|
G--12-14-15--14--12---------------------------------|
D-------------------15--13--12-----12---------------|
A------------------------------15-----13---12-13-15-|
E---------------------------------------------------|
Tap to rate this tab
 
# A B C D E F G H I J K L M N O P Q R S T U V W X Y Z