Guitaretab - guitar tabs
Song name
# A B C D E F G H I J K L M N O P Q R S T U V W X Y Z

Samples - For Everyone tab

For Everyone
Samples

Samples Rock!



Intro:  x 2  (Lightly strum first 3 strings) 

        Em     C       G      D
E----12----12-----10----10----|
B----12----13-----12----10----|
G----12----12-----12----11----|
D-----------------------------|
A-----------------------------|
E-----------------------------|

Em     C      G      D  (strum chords x1)


Em                  C       G     D
   Im tired of the Junk on TV
Em                  C                    G     D
   Im tired of politicians speaking for me
Em                  C               G     D
   Im tired of the liars and the cheats
Em                  C               G     D
   Im tired of the passive and the weak 
            C              G
This world was for everyone
            C              D
This world was for everyone

Bridge
Em     C      G      D (x2)

Em                     C                G     D
    Were tired of the crap that no one sees
Em                     C                G     D
    Were tired of the air that no one breathes

Em                  C               G     D
    We tired of the fortunes youve made

Em                       C             G     D
    When did pillage and rape become a trade
            C              G
This world was for everyone
            C              D
This world was for everyone

Whoah...oh...

Bridge (lead...Sean, my man)
e-15vvv-14-12--------------------------15vvv-14-12--|
B----------------15-13-15-12-13-12-10---------------|
G---------------------------------------------------|
D---------------------------------------------------|
A---------------------------------------------------|
E---------------------------------------------------|
[ Tab from: http://www.guitaretab.com/s/samples/68356.html ]
E--------------------------------------------|
B-15-15-12h-12-13-12-10-10-12-10-------------|
G--------------------------------------------|
D--------------------------------------------|
A--------------------------------------------|
E--------------------------------------------|

e--------------------------------------------------|
B--------------------------------------------------|
G-11-12-12-12-11-12-12-14-11-12-12-10--------------|
D--------------------------------------------------|
A--------------------------------------------------|
E--------------------------------------------------|

e----------------------------------------------------|
B----------------------------------------------------|
G----------------------------------------------------|
D-14-12-14-------------------------------------------|
A-------------12^14-14^12-10-----------------5-7-5---|
E----------------------------------12-10-5^7---------|

           C               G
This world was for everyone
           C               D
This world was for everyone
           C               G
This world was for everyone
           C               D
This world was for everyone
Em                      C                 G     D
     Shes tired of the man with slippery greed
Em                   C                 G     D
     Shes had about enough of you and me
Em               C               G      D
     Shes a non-believer in the freaks

            C              G
This world was for everyone
            C              D
This world was for everyone

            C              G
This world was for everyone
            C              D
This world was for everyone 

 
Fade...


key  vvv....sustain note 
     ^......slide up or down
     h......hammer

lead should be about exact...listen to the song to get the exact timing/rythym.

any comments/questions....let me know...have fun!...bdemers@maine.rr.com

P.S.  This is a great band! 
Related for For Everyone tab