Song name
# A B C D E F G H I J K L M N O P Q R S T U V W X Y Z

Samsas Traum - Dort Oben Sterben Tiere tab

So this ist the guitar part of "Dort oben sterben Tiere"

Play this with a clean electric guitar, a little bit reverb and plenty of tremolo.

E-----------------------------------------|
B-----------------------------------------|
G-------------------------7-5-------------|
D--5--7-8-7-5--7 (hold)--------5 (hold)---|
A-----------------------------------------|
E-----------------------------------------|

E-----------------------------------------|
B-----------------------------------------|
G-------------------------7-5--7 (hold)---|
D--5--7-8-7-5--7 (hold)-------------------|
A-----------------------------------------|
E-----------------------------------------|
Tap to rate this tab
# A B C D E F G H I J K L M N O P Q R S T U V W X Y Z