Song name
# A B C D E F G H I J K L M N O P Q R S T U V W X Y Z

Samuel Barber - Op 11 String Quartet - Adagio For Strings Molto Adagio tab

Time Signature: 4/4 ; 5/4 ; 6/4

Tuning: EADGBE

 |   |   |   |    |   |   |   |    |   |   |   |
|----------------|----------------|--------------0-|
|0-------0-------|----0-2---0-2-0-|2-3-0-2-3-2-3---|
|----------------|--3-----3-------|----------------|
|--------0-------|4---------------|----0-----------|
|--------2-------|1---------------|----2-----------|
|--------0-------|2---------------|----3-----------|


 |   |   |   |   |    |   |   |   |    |   |   |   |
|--------------------|----------------|----------------|
|------------2---2---|0---------0-2-3-|0---------------|
|2---------------2---|0---------------|0-2-0-----------|
|--------------------|----------------|------4-2-0---0-|
|4---------------4---|2---------------|2-----------4---|
|5---------------2---|3---------------|0---------------|


 |   |   |   |    |   |   |   |    |   |   |   |
|----------------|----------------|----------------|
|--------0-------|--------0---0---|----0-2---0-2-3-|
|----0-2---2---0-|----------------|--3-----3-------|
|2-4---------4---|4-----------0---|4---------------|
|2-------4-------|1-----------2---|1---------------|
|0---------------|2-----------0---|2---------------|


 |   |   |   |    |   |   |   |    |   |   |   |
|--------------0-|--3-3---3---3---|2---2-----------|
|2-3-0-2-3-2-3---|2---------------|------------1---|
|----------------|----------------|----------------|
|----0-----------|--------5-------|----4-----------|
|----2-----------|4---------------|----------------|
|----3-----------|5---------------|----------------|


 |   |   |   |    |   |   |   |    |   |   |   |   |   |
|----------------|----------------|------------------------|
|0---------0-3-2-|--------0---2---|------2-0-2-0-----0---0-|
|----------------|2-0---2-0---0-2-|--------------------2---|
|--1-2-4-1-2-4-2-|4---2-4---4-----|4---------------4-------|
|----------------|----------------|5-----------------------|
|--------3-------|2-------0-------|------------3-----------|


 |   |   |   |    |   |   |   |    |   |   |   |
|----------------|----------------|----------------|
|--0-----0-----0-|----------------|------------0---|
|----2-0-----2-0-|2-----0---0-2---|0---------0---2-|
|2---------2-4---|2-0-----4-------|------0-2-0-----|
|3---------------|0---4-2-5-------|0-2-4---0---2-4-|
|--------0-------|--------5-3-2-3-|0---------------|


  |   |   |   |
|----------------|
|----------------|
|----------------|
|4---------------|
|2---------------|
|---------etc.---|
Tap to rate this tab
# A B C D E F G H I J K L M N O P Q R S T U V W X Y Z