Song name
# A B C D E F G H I J K L M N O P Q R S T U V W X Y Z

Samuel Cohen - Hatikvah Hope tab

Hatikvah (Hope) - Samuel Cohen (1882)

This is the tune of the Israeli National Anthem. It's origin is not certain,
but the words (written by Naphtali Herz Imber) are thought to have been put
to music by Samuel Cohen in 1882. Cohen, an immigrant from Moldavia, is said
to have based the melody on a Moldavian-Rumanian folk song "Carul cu Boi"
("Cart and Oxen"). It seems unlikely that the tune was based on the melody of
a musical theme found in Bedrich Smetana's "Moldau", or that Imber borrowed
the tune from a composition by Cantor Nissan Belzer.

Tabbed by Michael Allongo - mikallongo@hotmail.com (17 July 2002)

Tuning : E A D G B E
Key: E-minor
Time signature: 4/4

  |   |   |   |      |   |    |   |     |   |   |   |      |   |   |   |
|-0-2-3-5-7---7----|-8-7-8-12-7-------|-5---5-5-3---3----|-2-0-2-3-0--------|
|------------------|----------0-------|-2---4---0--------|---------------0--|
|------------------|------------------|-2---4------------|-2-------0--------|
|-----2-4-5--------|-7------------0---|-----4------------|-----1---2--------|
|-------------7----|-----7------------|-------------2----|-2----------------|
|-0----------------|------------------|------------------|-------------0----|

  |   |   |   |      |   |    |   |     |   |   |   |      |   |   |   |
|-0-2-3-5-7---7----|-8-7-8-12-7-------|-5---5-5-3---3----|-2-0-2-3-0--------|
|-----1------------|------------------|-----------0------|---------0--------|
|------------------|--------------7---|-----5------------|---------0--------|
|---------5---6----|-7--------5-------|---------2---0----|---------2--------|
|------------------|-----9------------|-5----------------|-3---2---2--------|
|------------------|------------------|------------------|---------0--------|

  |   |   |   |      |   |   |   |      |   |   |   |      |   |   |   |
|-0---12--0---0----|---0-------2-0----|-----0---0---0----|---0--------------|
|---------1--------|-3---3-1-0-----3--|-1-0-1------------|-3---3-1-0--------|
|-------------2----|---------0--------|------------------|---------0---0-2--|
|------------------|-4---0------------|-------------0-2--|-4-0-2-----4------|
|-3----------------|------------------|-------3-2-3------|------------------|
|-0----------------|------------------|-0----------------|-------2----------|

  |   |   |   |      |   |   |   |      |   |   |   |      |   |   |   |
|------------------|------------------|-5---5-5-3---3----|-2-0-2-3-0--------|
|-3---3-3----------|---0-1-3-0--------|------------------|---------------0--|
|---2-----0---0----|-2---------2-0----|------------------|-------------0----|
|-0---0-4-2-0------|------------------|-4-------2---0----|-----1-----4------|
|-------------3-2--|-0---------0-2----|-----6------------|-3-------3--------|
|------------------|-----2---3--------|------------------|------------------|

  |   |   |   |      |   |    |   |     |   |   |   |      |   |   |   |
|-5---5-5-3---3----|-5-7-8-10-7-5-3---|-5---5-5-3---3----|-2-0-2-3-0--------|
|------------------|------------------|------------------|---------0--------|
|------------------|------------------|------------------|---------0--------|
|---------2---2----|-4---7----5-------|---------2-0------|-----1---2--------|
|-5---5------------|-------9------0-2-|-4---6-------3-2--|-0-----2-2--------|
|------------------|------------3-----|------------------|---------0--------|

Tap to rate this tab
 
# A B C D E F G H I J K L M N O P Q R S T U V W X Y Z