Song name
# A B C D E F G H I J K L M N O P Q R S T U V W X Y Z

Samuel L Jackson - Stack O Lee tab

 I really tried to tab this one good, I think I got it fairly well, I hope you all
All the verses are palm muted, if you listen and play along to the song you'll get the
fairly well, its not hard to get into it.. the last solo I didnt tab because I dont have 
slider so I couldn't really tab it, sorry..

Intro:
e|-------------------------------------------------------------------|
B|-------------------------------------------------------------------|
G|-----------2--2/5--2-22-------5-2-------2--2/5--2-22--------5-2----|
D|-----2h4------------------2-4-------2h4---------------------2-4----|
A|-------------------------------------------------------------------|
E|-------------------------------------------------------------------|

  Solo after every verse
e|--------------------------------------------------|
B|--------------------------------------------------|
G|----/12-12--7-5-55-00-575---12-12--7-5-55-00-52---|
D|--------------------------------------------------|
A|-----0--0---0-0-00-00-000----0--0---0-0-00-00-00--|
E|--------------------------------------------------|

   This here song is from back in the day...
(Every Verse Is Palm Muted)
e|------------------------------------------------------------|
B|------------------------------------------------------------|
G|--0-5-2---2-0-2---0-5-2---2-0-2---0h2--2-5-2-22-0252--------|
D|------------------------------------------------------------|
A|--0-0-0---0-0-0---0-0-0---0-0-0----0-----0-0-0-00-0000------|
E|------------------------------------------------------------|

e|--------------------------------------------------|
B|--------------------------------------------------|
G|----/12-12--7-5-55-00-575---12-12--7-5-55-00-52---|
D|--------------------------------------------------|
A|-----0--0---0-0-00-00-000----0--0---0-0-00-00-00--|
E|--------------------------------------------------|

  You know that bartender gave me a dirty look...
e|--------------------------------------------------------|
B|--------------------------------------------------------|
G|--0-5-2---2-0-2---0-5-2---2-0-2---0h2----2-5-2-22-0252--|
D|--------------------------------------------------------|
A|--0-0-0---0-0-0---0-0-0---0-0-0----0-----0-0-0-00-0000--|
E|--------------------------------------------------------|


e|--------------------------------------------------|
B|--------------------------------------------------|
G|----/12-12--7-5-55-00-575---12-12--7-5-55-00-52---|
D|--------------------------------------------------|
A|-----0--0---0-0-00-00-000----0--0---0-0-00-00-00--|
E|--------------------------------------------------|

   I reached down in my pocket...
e|--------------------------------------------------------|
B|--------------------------------------------------------|
G|--0-5-2---2-0-2---0-5-2---2-0-2-----0h2--2-5-2-22-0252--|
D|--------------------------------------------------------|
A|--0-0-0---0-0-0---0-0-0---0-0-0----0-----0-0-0-00-0000--|
E|--------------------------------------------------------|

e|--------------------------------------------------|
B|--------------------------------------------------|
G|----/12-12--7-5-55-00-575---12-12--7-5-55-00-52---|
D|--------------------------------------------------|
A|-----0--0---0-0-00-00-000----0--0---0-0-00-00-00--|
E|--------------------------------------------------|

  'bout that time you coulda heard...
e|--------------------------------------------------------|
B|--------------------------------------------------------|
G|--0-5-2---2-0-2---0-5-2---2-0-2---0h2--2-5-2-22-0252----|
D|--------------------------------------------------------|
A|--0-0-0---0-0-0---0-0-0---0-0-0----0-----0-0-0-00-0000--|
E|--------------------------------------------------------|


e|--------------------------------------------------|
B|--------------------------------------------------|
G|----/12-12--7-5-55-00-575---12-12--7-5-55-00-52---|
D|--------------------------------------------------|
A|-----0--0---0-0-00-00-000----0--0---0-0-00-00-00--|
E|--------------------------------------------------|
  About that time a pimp eased up...
e|----------------------------------------------------------|
B|----------------------------------------------------------|
G|--0-5-2---2-0-2---0-5-2---2-0-2-----0h2--2-5-2-22-0252----|
D|----------------------------------------------------------|
A|--0-0-0---0-0-0---0-0-0---0-0-0----0-----0-0-0-00-0000----|
E|----------------------------------------------------------|
Tap to rate this tab
 
# A B C D E F G H I J K L M N O P Q R S T U V W X Y Z