Song name
# A B C D E F G H I J K L M N O P Q R S T U V W X Y Z

Samy Deluxe - Poesiealbum tab

Poesiealbum - Samy Deluxe
-------------------------------------------------------------------------------
Tabbed by: Michael2102


Tuning:Standard


e|--------------------------------------------------------------------------|
B|--------------------------------------------------------------------------|
G|--------------------------------------------------------------------------|
D|--------------------------------------------------------------------------|
A|-11----11----9----------------------13----13----13----14----13----9-------|
E|------------------11----11----11------------------------------------------|



e|--------------------------------------------------------------------------|
B|--------------------------------------------------------------------------|
G|--------------------------------------------------------------------------|
D|--------------------------------------------------------------------------|
A|-11----11----9----------------------13----13----13h14h13----9-------------|
E|------------------11----11----11------------------------------------------|
Tap to rate this tab
# A B C D E F G H I J K L M N O P Q R S T U V W X Y Z