Song name
# A B C D E F G H I J K L M N O P Q R S T U V W X Y Z

San Cisco - Golden Revolver chords

Highlighted       Show chord diagrams
                      San Cisco - Golden Revolver
                              (by ede)


   A       -       A6               A       -       A6
e|--------------------------------|--------------------------------|
H|------5---------------7---------|------5---------------7---------|
G|----6-----6---------6-----6-----|----6-----6---------6-----6-----|
D|-7-----------7---7-----------7--|-7-----------7---7-----------7--|
A|--------------------------------|--------------------------------|
E|--------------------------------|--------------------------------|

   D                                /               
e|------5---------------5---------|------5---------------5---------
H|----7-----7---------7-----7-----|----7-----7---------7-----7-----|
G|-7-----------7---7-----------7--|-7-----------7---7-----------7--|
D|--------------------------------|--------------------------------|
A|--------------------------------|--------------------------------|
E|--------------------------------|--------------------------------|


A-A6 A-A6 D / (x2)

A - A6   A - A6
Take your blinkers off this time and
D        /
maybe, maybe you will find
            A - A6   A - A6              D        /
what you're looking for; is heavenly the sky

A - A6   A - A6
Slow down and read the signs
               D                         /
because you're going too fast and you're leaving us behind.

   G#m         F#m
So why would I try?
     G#m                A
When you're not even remotely, remotely kind?

A-A6 A-A6 D /

A - A6   A - A6
You can find love in the most extraordinary places
D        /
hiding away so no one can trace them
A - A6   A - A6
You duck and weave through the maze of hatred,
D                                     /
and found yourself something but you kept it to yourself

S   G#m         F#m
So why would I try?
     G#m                A
When you're not even remotely, remotely kind?

A-A6 A-A6 D / (x2)

A - A6   A - A6
You saw me with your golden revolver before
D        /
i could take mine out of the holster
A - A6   A - A6
and you left me there lying on the ground,
D        /
and you were no where, nowhere to be found.

   G#m         F#m
So why would I try?
     G#m                A
When you're not even remotely, remotely kind?

A-A6 A-A6 D /

During the "Ooooh Ooooh": A-A6 A-A6 D /
Tap to rate this tab
# A B C D E F G H I J K L M N O P Q R S T U V W X Y Z