Song name
# A B C D E F G H I J K L M N O P Q R S T U V W X Y Z

San Cisco - Fred Astaire tab

San Cisco - Fred Astaire

Song structure:
* Intro/verse x1 (no vocals)
* Intro/verse x2 (with vocals)
* Chorus
* Intro/verse x1 (no vocals)
* Intro/verse x2 (with vocals)
* Chorus
* Intro/verse x4 (keyboard solo)
* Chorus
* Intro/verse x1 (keyboard solo)


Intro/verse riff:

           A                                                    A (variation)               
 
E||--------9----------9---9------------9--|--------9--------9--12------------12--12----12--|
B||-------10---------10--10-----------10--|-------10-------10--10------------10--10----10--|
G||--------9----------9---9------------9--|--------9--------9---9-------------9---9-----9--|
D||-------11---------11--11-----------11--|-------11-------11--11------------11--11----11--|
A||---------------------------------------|------------------------------------------------|
E||---------------------------------------|------------------------------------------------|


        Amaj7                                                Amaj7 (variation)               
  
--------9-----9--------9------------9--|--------9--------9--12----------------12--12----12--|
--------9-----9--------9------------9--|--------9--------9---9-----------------9---9-----9--|
--------9-----9--------9------------9--|--------9--------9---9-----------------9---9-----9--|
-------11----11-------11-----------11--|-------11-------11--11----------------11--11----11--|
---------------------------------------|----------------------------------------------------|
---------------------------------------|----------------------------------------------------|


       Bm                                        Bmadd9                  
  
-------7--7-------7-----------7--|-------7-------9------9----7--7-------|
-------7--7-------7-----------7--|-------7-------7------7----7--7-------|
-------7--7-------7-----------7--|-------7-------7------7----7--7-------|
-------9--9-------9-----------9--|-------9-------9------9----9--9-------|
---------------------------------|--------------------------------------|
---------------------------------|--------------------------------------|


       A (variation 2)                                A6                          
 
-------5--------------------5--5-----------5--|-------5--5----5--5----5--5-------|
-------5--------------------5--5-----------5--|-------7--7----7--7----5--5-------|
-------6--------------------6--6-----------6--|-------6--6----6--6----6--6-------|
-------7--------------------7--7-----------7--|-------7--7----7--7----7--7-------|
----------------------------------------------|----------------------------------|
----------------------------------------------|----------------------------------|






Chorus riff:

  ...knows            ...common           ...ion              ..only          one       
  Dmaj7               A (variation 3)     Dmaj7               A (variation 3) G#m       
  
--5----------------|--5----------------|--5----------------|--5---------------4--------|
--7----------------|--5----------------|--7----------------|--5---------------4--------|
--6----------------|--6----------------|--6----------------|--6---------------4--------|
--7----------------|--7----------------|--7----------------|--7---------------6--------|
--5----------------|--7----------------|--5----------------|--7---------------6--------|
-------------------|--5----------------|-------------------|--5---------------4--------|


  ...(y)ou            ... take            ...(breakf)ast      ... take        ...(r)ound  
  Dmaj7               A (variation 3)     Dmaj7               A (variation 3) F#m         
   
--5----------------|--5----------------|--5----------------|--5---------------2----------|
--7----------------|--5----------------|--7----------------|--5---------------2----------|
--6----------------|--6----------------|--6----------------|--6---------------2----------|
--7----------------|--7----------------|--7----------------|--7---------------4----------|
--5----------------|--7----------------|--5----------------|--7---------------4----------|
-------------------|--5----------------|-------------------|--5---------------2----------|


   ...(w)orld                                                                      
   C#m                                                                             
 
---9----------9-----9---9-----9---9-----9--|---9-----9---9--------9-----9---------|
---9----------9-----9---9-----9---9-----9--|---9-----9---9--------9-----9---------|
---9----------9-----9---9-----9---9-----9--|---9-----9---9--------9-----9---------|
--11---------11----11--11----11--11----11--|--11----11--11-------11----11---------|
--11---------11----11--11----11--11----11--|--11----11--11-------11----11---------|
---9----------9-----9---9-----9---9-----9--|---9-----9---9--------9-----9---------|

                                                         
  D                                                   E                                      
 
--5----------------------------5---------5------------7--|----------7-----------7--7-------||
--7----------------------------7---------7------------9--|----------9-----------9--9-------||
--7----------------------------7---------7------------9--|----------9-----------9--9-------||
--7----------------------------7---------7------------9--|----------9-----------9--9-------||
---------------------------------------------------------|---------------------------------||
---------------------------------------------------------|---------------------------------||
Tap to rate this tab
 
# A B C D E F G H I J K L M N O P Q R S T U V W X Y Z