Song name
# A B C D E F G H I J K L M N O P Q R S T U V W X Y Z

San Cisco - Reckless tab

i know its not perfect, but i liked how this sounded when playing it. Feel free to
correct it if you need to. Got it from an acoustic video: http://www.youtube.com/
watch?v=bFOfiBZ_r4U

CAPO 6TH FRET

INTRO: 0:00
E|-------------------------|
G|-------------------------|
B|-------------------------|    X4
D|---2--2--2--2------------|
A|--3--3--3--3-------------|
E|-------------------------|

VERSE: 0:08
E|----------------------------------------------------------|
G|----------------------------------------------------------|
B|-------------------------------------0-----------0--------|  X4
D|----2--2--2--2--2--2--2--2---2---2--2--2---2--------------|
A|--0--0--0--0--2--2--2--2--3---3-------3--3----------------|
E|----------------------------------------------------------|

CHORUS: 0:37
              C                   Am
‘cause reckless is fun
              F                   G                       C   
  Am    F  G
when youre not the one that gets hurt
                       C                         Am
when your hearts in your mouth
             F                    G
your guts on the ground
               C                    Am                   F    
        G
you’ve got nothing left from the chest down
 C                       Am                           F           G
something is nothing ‘cause what you have
     C              Am                 F               G
is so much so much better than that

SOLO: 1:01
E|---------0--------------3--------------3-----0---0-------|
B|-----------1------------0--3----------0--------1---------|
G|----------------------------0-----------0----------------|
D|----2--------------2-------------------------------------|
A|--3--3----------3---3---------2~3------------------------|
E|---------------------------------------------------------|

VERSE 1:08
E|---------------------------------------------------------|
B|---------------------------------------------------------|
G|-----------------------------------0------------0--------|
D|---2--2--2--2-----------------2---2-2----2---2-----------|
A|--0--0--0--0--2-------------3--3-------3--3--------------|
E|---------------------------------------------------------|





E|----------------------------------------------------------|
G|----------------------------------------------------------|
B|-------------------------------------0-----------0--------|  X4
D|----2--2--2--2--2--2--2--2---2---2--2--2---2--------------|
A|--0--0--0--0--2--2--2--2--3---3-------3--3----------------|
E|----------------------------------------------------------|


CHORUS: 1:45

              C                   Am
‘cause reckless is fun
              F                   G                       C   
  Am    F  G
when you’re not the one that gets hurt
   C                Am
reckless is fun
              F                    G                       C  
   Am    F  G
when you’re not the one that gets hurt
                       C                         Am
when your hearts in your mouth
             F                    G
your guts on the ground
               C                    Am                   F    
        G
you’ve got nothing left from the chest down
 C                       Am                           F           G
something is nothing ‘cause what you have
     C              Am                 F               G
is so much so much better than that

BRIDGE: 2:15                                                           O= open chord
C  F  O  C  F  O  C  F  O  
Am  G  C    X2

n.C
reckless is fun when youre not the one that gets hurt

C  Am F  G  X2

CHORUS: 2:46

when your hearts in your mouth
             F                    G
your guts on the ground
               C                    Am                   F    
        G
you’ve got nothing left from the chest down
 C                       Am                           F           G
something is nothing ‘cause what you have
     C              Am                 F               G
is so much so much better than that

OUTRO: 3:01
C  F    C  F   C  F   Am  
 G  C
Tap to rate this tab
# A B C D E F G H I J K L M N O P Q R S T U V W X Y Z