Sanae Kobayashi - Tsunaida Te Ni Kiss Wo tab

Intro

|---------10---------10---------10-------------------10---------10-12-8-|
|-10-8-10----10-8-10----10-8-10----10-8------10-8-10----10-8-10---------|
|---------------------------------------9-------------------------------|
|-----------------------------------------10----------------------------|
|-----------------------------------------------------------------------|
|-----------------------------------------------------------------------|


Start

|---------------------------------------|---------------|
|----------10-8-------------------------|--10-10-10-10--|
|--7--9-10------10-9-7-9-10-9-7----7----|---------------|
|-------------------------------10------|---------------|
|---------------------------------------|---------------|
|---------------------------------------|---------------|
   Soshite bouya wa nemuri ni tsuita        ikizuku 


|-------------8-7--------|-------------------|
|-6-8-10-8-10------10-10-|-6-10-8---6-10-8---|
|------------------------|-----------------9-|
|------------------------|-------------------|
|------------------------|-------------------|
|------------------------|-------------------|
  hai no naka no honoo    hitotsu, futatsu to


|---------------------------------------|---------------|
|----------10-8-------------------------|--10-10-10-10--|
|--7--9-10------10-9-7-9-10-9-7----7----|---------------|
|-------------------------------10------|---------------|
|---------------------------------------|---------------|
|---------------------------------------|---------------|
   ukabu  fukurami  itoshii  yokogao        daichi  ni


|-------------8-7-------|-----------------8-|
|-6-8-10-8-10-----10-10-|-6-10-8---6-10-8---|
|-----------------------|-------------------|
|-----------------------|-------------------|
|-----------------------|-------------------|
|-----------------------|-------------------|
  taruru   ikusen    no      yume, yume  


|-6-6-6-------6--5-6-5--------6-6-6-------6-5-6-5---------5-|
|-------8-10-----------8-6----------8-10----------8-6-8-----|
|---------------------------5-------------------------------|
|-----------------------------------------------------------|
|-----------------------------------------------------------|
|-----------------------------------------------------------|
   Gin     no      hitomi    no     yuragu     yoru     ni


|-4-4-4-----4-3-4-3----------------------------------------|
|-------6-8---------6-4---6-8-6---6-8-6-6--6-8-9-9-8-8-6-5-|
|----------------------------------------------------------|
|----------------------------------------------------------|
|----------------------------------------------------------|
|----------------------------------------------------------|
   umare        ochita         kagayaku           omae


|---------------8-----------------------|--------------------------|
|----------10-8---11-10-8-10-10---------|---------10-8-------------|
|--7--9-10------------------------------|-7--9-10------10-9-10-9-7-|
|---------------------------------------|--------------------------|
|---------------------------------------|--------------------------|
|---------------------------------------|--------------------------|
  ikuoku   no  toshitsuki    ga          ikutsu inori wo tsuchi e kaesshitemo


|---------------8-10-8-10---------------|
|----------10-8-------------------------|
|--7--9-10------------------------------|
|---------------------------------------|
|---------------------------------------|
|---------------------------------------|
  tsunaida te ni kisu wo


And then starts again from intro.
Tap to rate this tab
 
# A B C D E F G H I J K L M N O P Q R S T U V W X Y Z