Song name
# A B C D E F G H I J K L M N O P Q R S T U V W X Y Z

Sanctuary - Soldiers Of Steel tab

(Guitar Tab for Soldiers of Steel)
(As recorded By Sanctuary)
This is a Version without the solo I’m still 
Working on the solo right now so I hope this 
Is of some good use. Please state any comments 
Regarding the accuracy of the tab in the 
Comments section as my Email is not working 
Right at the moment.  


Gtr I (c# F# B E G# C#) - 'N/A'
Gtr II (c# F# B E G# C#) - 'N/A'

Difficulty: Hard (Beginner, Easy, Advanced, Hard, Crazy Hard) 

Q=Medium 
Intro (Repeat this section)Interlude to Verse
E-------------------------|-----------------------------------|
B-------------------------|-----------------------------------|
G----7---(8)------7---(6)-|-----------------------------------|
D----7---(8)------7---(6)-|-----------------------------------|
A----5---(6)------5---(4)-|-(5)-------------------------------|
e-3----3-------3----3-----|-----------------------------------|

Verse Riff 1
E---------------------------------------------------|
B---------------------------------------------------|
G----7---8----------------------7---8---------------|
D----7---8--------8---8-6-------7---8------8---8-6--|
A----5---6--------8---8-6-------5---6------8---8-6--|
e-3----3-----3-33-6-3-6-4--3-33---3---3-33-6-3-6-4--|
                                                      Before The Clean Part
E----------------------------------------------------|-------------------|
B----------------------------------------------------|-------------------|
G------7---8---------------------7---8---------------|-------------------|
D------7---8-------8---8-6-------7---8-------8---8-6-|---(5)-------------|
A------5---6-------8---8-6-------5---6-------8---8-6-|---(5)-------------|
e-3-33---3----3-33-6-3-6-4--3-33---3----3-33-6-3-6-4-|---(3)-------------|

Clean Guitar Part/ Verse riff 2 
E-------0-----0-------0--[-------0---------------0---------|
B-----0-------------0----[-----0---0-----------0---0-------|
G---4-------4-----4------[---2-------2---2---2-------2---2-|
D-2-------2-----2--------[-3-----------3---3-----------3---|
A------------------------[---------------------------------|
e------------------------[---------------------------------|
The Blind Prophet…   

Play from the Verse riff again but add Verse Riff 3 on the second time 
Instead of going into the clean part 

Verse riff 3
E----------------------------------|---------------------|
B----------------------------------|---------------------|
G----------------------------------|---------------------|
D-----7---6---7---8---7---6---7----|--(5)----------------|
A-----5---4---5---6---5---4---5-5--|--(5)----------------|
e-3-3---3---3---3---3---3---3---3--|--(3)----------------|
I Bring Black plague upon you…

Prelude to Solo 
E-----------------------------|-----------------------------------|
B-----------------------------|-----------------------------------|
G-----7h8p7p5h(7)-------------|-----------------------------------|
D-5-5-------------7h8p7p5h7-5-|-----------------------------------|
A-5-5-------------------------|-----------------------------------|
e-3-3-------------------------|-----------------------------------|
Tap to rate this tab
# A B C D E F G H I J K L M N O P Q R S T U V W X Y Z