Song name
# A B C D E F G H I J K L M N O P Q R S T U V W X Y Z

Sanctus Real - Turn On The Lights tab

my first tab... EVER! so be nice! I did this by ear too... so just letting you know...

e||-----------------|-----------------|-----------------|----------------------|
B||-----------------|-----------------|-----------------|----------------------|
G||--5----5----h7---|-5----5----h7----|--5----5---h7----|----------------------|
D||-----------------|-----------------|-----------------|--7----7--------------|
A||-----------------|-----------------|-----------------|------------7----7----|
E||-----------------|-----------------|-----------------|----------------------|


 
-----------------|-----------------|-----------------|----------------------|
-----------------|-----------------|-----------------|----------------------|
--5----5---h7----|--5----5---h7----|--5----5---h7----|----------------------|
-----------------|-----------------|-----------------|--7----7--------------|
-----------------|-----------------|-----------------|------------7----7----|
-----------------|-----------------|-----------------|----------------------|


 
-------8----8---h10----|-------8----8---h10----|-------8----8---h10----|
-----------------------|-----------------------|-----------------------|
-----------------------|-----------------------|-----------------------|
-----------------------|-----------------------|-----------------------|
-----------------------|-----------------------|-----------------------|
-----------------------|-----------------------|-----------------------|


   
-------------------------|--------8----8---h10----|-------8----8---h10----|
-------10----10----------|------------------------|-----------------------|
-------------------10----|--10--------------------|-----------------------|
-------------------------|------------------------|-----------------------|
-------------------------|------------------------|-----------------------|
-------------------------|------------------------|-----------------------|


 
-------------------------|--------------------------|--------||
-------10----10----------|--------10----10----------|--------||
-------------------10----|--10----------------10----|--10----||
-------------------------|--------------------------|--------||
-------------------------|--------------------------|--------||
-------------------------|--------------------------|--------||
Tap to rate this tab
# A B C D E F G H I J K L M N O P Q R S T U V W X Y Z