Guitaretab - guitar tabs
Song name
# A B C D E F G H I J K L M N O P Q R S T U V W X Y Z

Sanctus Real - Alone tab

Hey guys...this is kinda a mix between tabs and chords but its 100% accurate i got it 
from the band n a myspace message k....ENJOY!!!

[ Tab from: http://www.guitaretab.com/s/sanctus-real/135528.html ]
Intro: x2
1--------------------------------------------------------------------|
2--------------------------------------------------------------------|
3--------------------------------------------------------------------|
4--------------------------------------------------------------------|
5-----3-----3-3-----3-----------------3-----3-3-----3----------------|
6-3-33-3-----3-33-3-5-5---3-33-3-----3-3--3-3-5-5-5---------------|

Riff
1-------------------------------|
2-------------------------------|
3-------------------------------|
4--------------5--------------5-|
5------0h3p0---3-3h5p3--5-------|
6-3-3------------------------5--|

Verse (barre chords)
F C G A G A G
F C G A G A GG
F C G A G A G
F C G

Chorus
F C G then Octaves

1----------|
2----------|
3-7/9-7/5--|
4----------|
5-5/7-5/3--|
6----------|

F C A G

Bridge :
F C CaddBb A
F C D E F
Related for Alone tab