Guitaretab - guitar tabs
Song name
# A B C D E F G H I J K L M N O P Q R S T U V W X Y Z

Sanctus Real - Show tab

Sanctus Realó "The Show"
Tuning: Eb Ab Db Gb Bb Eb

Intro and Verse-
Eb|--4----4--4----4----4--4----4---4-4---4---4-4---|
Bb|--5----5--5----5----5--5----5---5-5---5---5-5---|
Gb|--6----6--6----6----6--6----4---4-4---4---4-4---|
Db|------------------------------------------------|
Ab|------------------------------------------------|
Eb|------------------------------------------------|

Eb|--2----2--2----2----0--0----0---0-0---0---0-0---|
Bb|--2----2--2----2----0--0----0---0-0---0---0-0---|
Gb|--2----2--2----2----1--1----1---1-1---1---1-1---|
Db|------------------------------------------------|
Ab|------------------------------------------------|
Eb|------------------------------------------------|

Chorus
        1st, 2nd and 4th time                    3rd time
Eb|-----------------------------------|-----------------------------------|
Bb|-----------------------------------|-----------------------------------|
Gb|--7-7-7-7-6-6-6-6-1-1-1-1-1-1-1-1--|--7-7-7-7-6-6-6-6-4-4-4-4-4-4-4-4--|
Db|--7-7-7-7-7-7-7-7-2-2-2-2-2-2-2-2--|--7-7-7-7-7-7-7-7-2-2-2-2-2-2-2-2--|
Ab|--9-9-9-9-7-7-7-7-2-2-2-2-2-2-2-2--|--9-9-9-9-7-7-7-7-2-2-2-2-2-2-2-2--|
Eb|--5-5-5-5-5-5-5-5-0-0-0-0-0-0-0-0--|--5-5-5-5-5-5-5-5-0-0-0-0-0-0-0-0--|

Verse
[ Tab from: http://www.guitaretab.com/s/sanctus-real/153984.html ]
Chorus

BRIDGE-
Eb|-------------------------------------------|
Bb|-------------------------------------------|
Gb|-------------------------------------------|
Db|-9-9-9-9-9-9-9-11-12-12-12-12-12-12-12-12--|
Ab|-9-9-9-9-9-9-9-11-12-12-12-12-12-12-12-12--|
Eb|-7-7-7-7-7-7-7-7--10-10-10-10-10-10-10-10--|

----------------------------------|
----------------------------------|
----------------------------------|
-7-7-7-7-7-7-7-7-6-6-6-6-6-6-6-6--|
-7-7-7-7-7-7-7-7-7-7-7-7-7-7-7-7--|
-5-5-5-5-5-5-5-5-4-4-4-4-4-4-4-4--|

Solo!:
Eb|-------------------------------------------------------12--10--9-10-9--17-|
Bb|--------------------10---13^--9----10-9-10-9-10-9-9-----------------------|
Gb|--9--7--6/7^-7--------------------------------------9---------------------|
Db|----------------7---------------------------------------------------------|
Ab|--------------------------------------------------------------------------|
Eb|--------------------------------------------------------------------------|

On the chorus (or actually half a chorus) where it is just gitar strumming,
it goes:
Eb|---------------------|
Bb|--7------5------0----|
Gb|--7------6------9----|
Db|--7------7------9----|
Ab|--9------7------7----|
Eb|---------------------|
Related for Show tab