Sanctus Real - These Things Take Time tab

     Just the intro
e---1-0-----3-3---------1-0-----3-3----------|
B---1-1-----3-3---------1-1-----3-3-5-3------|   x2
G---2-2-----4-4---------2-2-----4-4-----4----|
D-3---3-3-5-5-5-0-2-3-3-3-3-3-5-5-5----------|
A--------------------------------------------|
E--------------------------------------------|

e---1-0-----3-3---------1-0-----3-3----------|
B---1-1-----3-3---------1-1-----3-3-5-3------|   x2
G---2-2-----4-4---------2-2-----4-4-----4----|
D-3---3-3-5-5-5-0-2-3-3-3-3-3-5-5-5----------|
A--------------------------------------------|
E--------------------------------------------|
Tap to rate this tab
 
# A B C D E F G H I J K L M N O P Q R S T U V W X Y Z