Song name
# A B C D E F G H I J K L M N O P Q R S T U V W X Y Z

Sanctus Real - Change Me tab

Capo 1

I tabbed out the rhythm for the most part, but as a rule just feel it out

Intro: (Sounds like this first part is played on a different stringed instrument, 
but here it is, adapted for guitar)
e|-------------------------------------------------|
B|--8-8-8-8-5-8--12-12-12-12-8-12-15~---8-12-15~---|
G|-------------------------------------------------|
D|-------------------------------------------------|
A|-------------------------------------------------|
E|-------------------------------------------------|
  A         B         C         G         F
e|-----------------------------------------------------------------------|
B|----------------------------------------1---------1---------1---------1|
G|2--2-2-2--4--4-4-4--5--5-5-5------------2---------2---------2---------2| x2
D|2--2-2-2--4--4-4-4--5--5-5-5--5--5-5-5--3--3-3-3--3--3-3-3--3--3-3-3--3|
A|0--0-0-0--2--2-2-2--3--3-3-3--5--5-5-5--3--3-3-3--3--3-3-3--3--3-3-3--3|
E|------------------------------3--3-3-3--1--1-1-1--1--1-1-1--1--1-1-1--1|

Verse 1:

Did I change Your mind...
e|--------------------------------------------------------------------------|
B|--------------------------------------------------------------------------|
G|--2--2-2-2--4--4-4-4--5--5-5-5--------------------------------------------|
D|--2--2-2-2--4--4-4-4--5--5-5-5--5--5-5-5--3--3-3-3--3--3-3-3--3--3-3-3--3-|
A|--0--0-0-0--2--2-2-2--3--3-3-3--5--5-5-5--3--3-3-3--3--3-3-3--3--3-3-3--3-|
E|--------------------------------3--3-3-3--1--1-1-1--1--1-1-1--1--1-1-1--1-|

With what I said last night?
e|---------------------------------------------|
B|---------------------------------------------|
G|--2--2-2-2--4--4-4-4--5--5-5-5---------------|
D|--2--2-2-2--4--4-4-4--5--5-5-5--5--5-5-5--3--|
A|--0--0-0-0--2--2-2-2--3--3-3-3--5--5-5-5--3--|
E|--------------------------------3--3-3-3--1--|

Did I break Your heart...by straying so far
e|-----------------------------------------------------------------------|
B|----------------------------------------1---------1---------1---------1|
G|2--2-2-2--4--4-4-4--5--5-5-5------------2---------2---------2---------2| x2
D|2--2-2-2--4--4-4-4--5--5-5-5--5--5-5-5--3--3-3-3--3--3-3-3--3--3-3-3--3|
A|0--0-0-0--2--2-2-2--3--3-3-3--5--5-5-5--3--3-3-3--3--3-3-3--3--3-3-3--3|
E|------------------------------3--3-3-3--1--1-1-1--1--1-1-1--1--1-1-1--1|

From what You have in mind...for my life?
e|-----------------------------------------------------------------|
B|-----------------------------------------------------------------|
G|--2--2-2-2--2--2-2-2--2--2-2-2--2--2-2-2-------------------------|
D|--2--2-2-2--2--2-2-2--2--2-2-2--2--2-2-2--3--3-3-3--3--3-3-3--3--|
A|--0--0-0-0--0--0-0-0--0--0-0-0--0--0-0-0--3--3-3-3--3--3-3-3--3--|
E|------------------------------------------1--1-1-1--1--1-1-1--1--|



Chorus 1:

Would You change me...
e|------------------------------------------|
B|--1--1-1-1--1--1-1-1----------------------|
G|--0--0-0-0--0--0-0-0----------------------|
D|--2--2-2-2--2--2-2-2--3--3-3-3--3--3-3-3--|
A|--3--3-3-3--3--3-3-3--3--3-3-3--3--3-3-3--|
E|----------------------1--1-1-1--1--1-1-1--|

From who I've been lately?
e|------------------------------------------|
B|------------------------------------------|
G|--2--2-2-2--2--2-2-2----------------------|
D|--2--2-2-2--2--2-2-2--3--3-3-3--3--3-3-3--|
A|--0--0-0-0--0--0-0-0--3--3-3-3--3--3-3-3--|
E|----------------------1--1-1-1--1--1-1-1--|

'Cause I know I'm nothing
e|------------------------------------------|
B|--1--1-1-1--1--1-1-1----------------------|
G|--0--0-0-0--0--0-0-0----------------------|
D|--2--2-2-2--2--2-2-2--5--5-5-5--5--5-5-5--|
A|--3--3-3-3--3--3-3-3--5--5-5-5--5--5-5-5--|
E|----------------------3--3-3-3--3--3-3-3--|

Without You
e|-----------------------------------|
B|-----------------------------------|
G|-----------------------------------|
D|--3--3-3-3--3--3-3-3--3--3-3-3--3--|
A|--3--3-3-3--3--3-3-3--3--3-3-3--3--|
E|--1--1-1-1--1--1-1-1--1--1-1-1--1--|


Post-Chorus: (Both parts played at the same time, listen for timing)
e|--------------------| 
B|--------------------| 
G|--------------------| x2
D|--------------------| 
A|---0--2--3----------| 
E|------------3--1~---|

e|-----------------------------------------------------------------------|
B|----------------------------------------1---------1---------1---------1|
G|2--2-2-2--4--4-4-4--5--5-5-5------------2---------2---------2---------2| x2
D|2--2-2-2--4--4-4-4--5--5-5-5--5--5-5-5--3--3-3-3--3--3-3-3--3--3-3-3--3|
A|0--0-0-0--2--2-2-2--3--3-3-3--5--5-5-5--3--3-3-3--3--3-3-3--3--3-3-3--3|
E|------------------------------3--3-3-3--1--1-1-1--1--1-1-1--1--1-1-1--1|


Verse 2:

Did my words betray...the patience I once claimed?
e|-----------------------------------------------------------------------|
B|-----------------------------------------------------------------------|
G|2--2-2-2--4--4-4-4--5--5-5-5-------------------------------------------| x2
D|2--2-2-2--4--4-4-4--5--5-5-5--5--5-5-5--3--3-3-3--3--3-3-3--3--3-3-3--3|
A|0--0-0-0--2--2-2-2--3--3-3-3--5--5-5-5--3--3-3-3--3--3-3-3--3--3-3-3--3|
E|------------------------------3--3-3-3--1--1-1-1--1--1-1-1--1--1-1-1--1|

Can't You see it in my face? I need Your grace...
e|-----------------------------------------------------------------|
B|-----------------------------------------------------------------|
G|--2--2-2-2--2--2-2-2--2--2-2-2--2--2-2-2-------------------------|
D|--2--2-2-2--2--2-2-2--2--2-2-2--2--2-2-2--3--3-3-3--3--3-3-3--3--|
A|--0--0-0-0--0--0-0-0--0--0-0-0--0--0-0-0--3--3-3-3--3--3-3-3--3--|
E|------------------------------------------1--1-1-1--1--1-1-1--1--|


Chorus 2: (Play either this or the first chorus; this riff is the most prominent 
in the second chorus)

Would You change me...from who I've been lately?
(Would You save me...from the way I've been lately?)
e|------------------------------------------------------------------| \
B|------------------------------------------------------------------| |
G|--5--5-5--5--5-5------------------2--2-2--2--2-2------------------| |
D|--5--5-5--5--5-5--3--3-3--3--3-3--2--2-2--2--2-2--3--3-3--3--3-3--| |
A|--3--3-3--3--3-3--3--3-3--3--3-3--0--0-0--0--0-0--3--3-3--3--3-3--| |
E|------------------1--1-1--1--1-1------------------1--1-1--1--1-1--| |
                                                                      |
'Cause I know I'm nothing without You                                 | x2
('Cause I can't see living without You)                               |
e|------------------------------------------------------------------| |
B|------------------------------------------------------------------| |
G|--5--5-5--5--5-5--------------------------------------------------| |
D|--5--5-5--5--5-5--5--5-5--5--5-5--3--3-3--3--3-3--3--3-3--3--3-3--| |
A|--3--3-3--3--3-3--5--5-5--5--5-5--3--3-3--3--3-3--3--3-3--3--3-3--| |
E|------------------3--3-3--3--3-3--1--1-1--1--1-1--1--1-1--1--1-1--| /


Bridge:
e|------------------------------------------------------------------|
B|------------------------------------------------------------------|
G|--5--5-5--5--5-5--------------------------------------------------| x2
D|--5--5-5--5--5-5--2--2-2--2--2-2--5--5-5--5--5-5--5--5-5--5--5-5--|
A|--3--3-3--3--3-3--2--2-2--2--2-2--5--5-5--5--5-5--5--5-5--5--5-5--|
E|------------------0--0-0--0--0-0--3--3-3--3--3-3--3--3-3--3--3-3--|

(PALM MUTED--relax palm muting second time around on the G power chord)
So would you speak to me...and show me what I need?
e|----------------------------------------------------------|
B|----------------------------------------------------------|
G|------------------------------5-5-5--5-5-5----------------| x2
D|--2-2-2--2-2-2--3-3-3--3-3-3--5-5-5--5-5-5--5-5-5--5-5-5--|
A|--2-2-2--2-2-2--3-3-3--3-3-3--3-3-3--3-3-3--5-5-5--5-5-5--|
E|--0-0-0--0-0-0--1-1-1--1-1-1----------------3-3-3--3-3-3--|

(Instrumental first two times; vocals come in on the third repeat)
Is it patience, kindness, all that's in between? Loving others...
e|--------------------------------------------------------------|
B|--------------------------------------------------------------|
G|--2-2-2--2-2-2--5-5-5--5-5-5----------------------------------| x4
D|--2-2-2--2-2-2--5-5-5--5-5-5--3--3-3--3--3-3--3--3-3--3--3-3--|
A|--0-0-0--0-0-0--3-3-3--3-3-3--3--3-3--3--3-3--3--3-3--3--3-3--|
E|------------------------------1--1-1--1--1-1--1--1-1--1--1-1--|


Chorus 3:

    Would You change me...from who I've been lately?
e|----------------------------------------------------|
B|--1---------1----------------0-------------1--------|
G|--0---------2----------------2-------------2--------|
D|--2---------3----------------2-------------3--------|
A|--3---------3----------------0-------------3--------|
E|------------1------------------------------1--------|

(Lightly PALM MUTE F power chord at first, then gradually release)
'Cause I know I'm nothing without You
e|-------------------------------------------------------------|
B|-----1----------3-----------1--------------------------------|
G|-----0----------0-----------2--------------------------------|
D|-----2----------0-----------3--3-3--3--3-3--3--3-3--3--3-3---|
A|-----3----------2-----------3--3-3--3--3-3--3--3-3--3--3-3---|
E|----------------3-----------1--1-1--1--1-1--1--1-1--1--1-1---|

Would You break me...from the way I've been lately?
(Would You change me...from who I've been lately?)
e|------------------------------------------------------------------| \
B|------------------------------------------------------------------| |
G|--5--5-5--5--5-5------------------2--2-2--2--2-2------------------| |
D|--5--5-5--5--5-5--3--3-3--3--3-3--2--2-2--2--2-2--3--3-3--3--3-3--| |
A|--3--3-3--3--3-3--3--3-3--3--3-3--0--0-0--0--0-0--3--3-3--3--3-3--| |
E|------------------1--1-1--1--1-1------------------1--1-1--1--1-1--| |
                                                                      |
'Cause I can't see living without You                                 | x3
('Cause I know I'm nothing without You)                               |
e|------------------------------------------------------------------| |
B|------------------------------------------------------------------| |
G|--5--5-5--5--5-5--------------------------------------------------| |
D|--5--5-5--5--5-5--5--5-5--5--5-5--3--3-3--3--3-3--3--3-3--3--3-3--| |
A|--3--3-3--3--3-3--5--5-5--5--5-5--3--3-3--3--3-3--3--3-3--3--3-3--| |
E|------------------3--3-3--3--3-3--1--1-1--1--1-1--1--1-1--1--1-1--| /


Outro:
e|------------------------------------------------------------------|
B|------------------------------------------------------------------|
G|--5--5-5--5--5-5--------------------------------------------------| x2
D|--5--5-5--5--5-5--2--2-2--2--2-2--5--5-5--5--5-5--5--5-5--5--5-5--|
A|--3--3-3--3--3-3--2--2-2--2--2-2--5--5-5--5--5-5--5--5-5--5--5-5--|
E|------------------0--0-0--0--0-0--3--3-3--3--3-3--3--3-3--3--3-3--|

e|------------------------------------------|
B|--8-8-8-8-5-8-8/12-12-12-12-8-12-12/15~---|
G|------------------------------------------|
D|------------------------------------------|
A|------------------------------------------|
E|------------------------------------------|
               Really a great song, I hope it's a blessing. :)
Tap to rate this tab
 
# A B C D E F G H I J K L M N O P Q R S T U V W X Y Z