Song name
# A B C D E F G H I J K L M N O P Q R S T U V W X Y Z

Sandals - Endless Summer Theme tab

-------------------------------------------------------------------------------
		     ENDLESS SUMMER THEME - The Sandals
-------------------------------------------------------------------------------
Tabbed by: pelori


Tuning:Standard

Rhythm guitar play chords
Chords: D, C

Lead guitar plays tabs below:

e|-------------------------------------------------------------------------|
B|-------------------------------------------------------------------------|
G|-------------------------------------------------------------------------|
D|-------------------------------------------------------------------------|
A|-5-0-5-5/7---7-7/9-5-7h9-7---7---5-0-5-5/7---7-7/9-5-7h9-7---7-----------|
E|-----------8-------------------------------8-----------------------------|

e|-------------------------------------------------------------------------|
B|---------------------------3-0-3-3/5-2-5-5/7-3-5h7-5---------------------|
G|-------------------------------------------------------------------------|
D|-------------------------------------------------------------------------|
A|-------------------------------------------------------------------------|
E|-5--5-3-2-2h-3-0---------------------------------------------------------|

e|-------------------------------------------------------------------------|
B|--3-0-3-3/5-2-5-5/7--7-5---7-5--5-3-3-2-2h3-2-0--------------------------|
G|-------------------------------------------------------------------------|
D|-------------------------------------------------------------------------|
A|-------------------------------------------------------------------------|
E|-------------------------------------------------------------------------|

Repeat several times. 

| /  slide up 
| \  slide down
| h  hammer-on
| p  pull-off
| ~  vibrato
| +  harmonic
| x  Mute note
===============================================================================
Tap to rate this tab
# A B C D E F G H I J K L M N O P Q R S T U V W X Y Z