Song name
# A B C D E F G H I J K L M N O P Q R S T U V W X Y Z

Sandman - The Beast tab

INTRO

E---------------------------------------|
H---------------------------------------|
G---------------------------------------|     Repeat this
D-7-7-7--5-5-5--2-2-2-2-5-5-6-----------|          4x
A-5-5-5--3-3-3--2-2-2-2-3-3-4-----------|
E-0-0-0--0-0-0--0-0-0-0-0-0-0-----------|

VERSE 1

E----------------------------------------------------|
H----------------------------------------------------|
G----------------------------------------------------|       Repeat this
D-7-7-7-7-7-7-7-0-5-5-5-5-5-5-5-0    something like--| 5x
A-5-5-5-5-5-5-5-0-3-3-3-3-3-3-3-0--------------------|
E----------------------------------------------------|

CHORUS (same as intro)

E---------------------------------------|
H---------------------------------------|
G---------------------------------------|     Repeat this
D-7-7-7--5-5-5--2-2-2-2-5-5-6-----------|          3x
A-5-5-5--3-3-3--2-2-2-2-3-3-4-----------|
E-0-0-0--0-0-0--0-0-0-0-0-0-0-----------|

VERSE 2

E-------------------------------------------------|
H-------------------------------------------------|
G-------------------------------------------------|       Repeat this
D-7-7-7-7-7-7-7-0-5-5-5-5-5-5-5-0       close to--| 6x
A-5-5-5-5-5-5-5-0-3-3-3-3-3-3-3-0-----------------|
E-------------------------------------------------|

+

E---------------|
H---------------|
G---------------|
D-15/--0\-------|
A-15/--0\-------|
E---------------|

CHORUS

SOLO

E---------------------------------------------------------------------|
H---------------------------------------------------------------------|
G-12~~~~-12~~~~-15h12p15h12p15h12p15-(many times)-15^-15-15-15-15-15~-|
D---------------------------------------------------------------------|
A---------------------------------------------------------------------|
E---------------------------------------------------------------------|

E---------------------------------------------------------------------|
H-12h15p12h15p12h15p12h15p12hp15h12-(many times)-15^-15-15-15-15-15~--|
G---------------------------------------------------------------------|
D---------------------------------------------------------------------|
A---------------------------------------------------------------------|
E---------------------------------------------------------------------|

E-------------------------------------------------------------------------|
H-12-15-14-17-16-19-18-21^-21-21-21-21-21~-21-20-19-18-17-16-15-14-13-12~-|
G-------------------------------------------------------------------------|
D-------------------------------------------------------------------------|
A-------------------------------------------------------------------------|
E-------------------------------------------------------------------------|

E-------------------------------------------------------|
H-------------------------------------------------------|
G-------------------------------------------------------|      And then chorus
D-7--7--7-7-7-7--7-7-7-5-5-5-2-2-2-2-5-5-6--------------|             2x
A-5--5--5-5-5-5--5-5-5-3-3-3-2-2-2-2-3-3-4--------------|
E-0--0--0-0-0-0--0-0-0-0-0-0-0-0-0-0-0-0----------------|

Play Intro 2 more times and at last time slow down about half step!

Thanks!

http://www.mikseri.net/artists/sandmana/the-beast/452782/
Tap to rate this tab
# A B C D E F G H I J K L M N O P Q R S T U V W X Y Z