Song name
# A B C D E F G H I J K L M N O P Q R S T U V W X Y Z

Sandra Nasic - The Signal tab

Help us improve GuitareTab! Take a short survey!
intro

e|-------------------------------------------|
B|-------------------------------------------|
G|-------------------------------------------|
D|-------------------------------------------|
A|------------9-(8x)--6-(8x)-----------------|
E|-6-(32x)----------------------6-(13x)------|


verses

e|---------------------------------------------|
B|---------------------------------------------|
G|---------------------------------------------|
D|----------11-(8x)---8-(8x)-------------------|
A|-8-(32x)---9--------6--------8-(16x)---------|
E|-6---------------------------6---------------|


Chorus

(Bb5)             D#5                         B#5  Bb5
        You're so strange strange strange strange


"bridge"

Bb5  B5   F#5   C#5  (2x)

D#5  F#5  D#5  F#5  Bb5  G#5





Related for The Signal tab