Song name
# A B C D E F G H I J K L M N O P Q R S T U V W X Y Z

Sandra Nasic - Name Of My Baby tab

Help us improve GuitareTab! Take a short survey!
www.sandranasic.de   /   www.myspace.com/sandranasic 

i didnt tab the whole song ;)  i think it's correct, but i'm not sure... :D

standart tuning
E A D G B e

Intro (2x)
e|------------------------------------|
B|------------------------------------|
G|------------------------------------|
D|------------------------------------|
A|------------------------------------|
E|0-(16times)-7-(8times)-8-(8times)---|


Verse1
e|------------------------------------|
B|------------------------------------|
G|------------------------------------|
D|------------------------------------|
A|-7-7-5-5-3-3-2-2---7-7-5-5-3-3-2-2--|
E|------------------------------------|

1st guitar (2x)
e|------------------------------------|
B|------------------------------------|
G|------------------------------------|
D|------------------------------------|
A|-2-3-2-3-2-3-2-3-2-3-2-3-2-3-2-3----|
E|------------------------------------|

2nd guitar (starts after finishing of one time playing 1st guitar)
e|------------------------------------|
B|------------------------------------|
G|------------------------------------|
D|-0-2-0-2-0-2-0-2-0-2-0-2-0-2-0-2----|
A|------------------------------------|
E|------------------------------------|

Chorus
A5                 G5      E5-F5         
say the name of my baby 
       .....

Verse 2
(exactly like verse 1)

Chorus
A5                 G5      E5-F5         
say the name of my baby           

"bridge"
you can play the notes she is singing if you want:

e|-4-5-7-8-7--|
B|------------|
G|------------|
D|------------|
A|------------|
E|------------|

solo while playing the chorus-chords:

e|-10-10-10-8-8-8-7-7-7-7-7-7-7-7-7-7---|
B|--------------------------------------|
G|--------------------------------------|
D|--------------------------------------|
A|--------------------------------------|
E|--------------------------------------|

e|-10-10-10-8-8-8-------------------------------|
B|----------------10-10-10-10-10-10-10-10-10-10-|
G|----------------------------------------------|
D|----------------------------------------------|
A|----------------------------------------------|
E|----------------------------------------------|


Chorus
A5                 G5    
Say the name of my baby

   E5         F5
e|-----------------------|
B|-8--8------8-8-8-------|
G|-----------------------|
D|-----------------------|
A|-----------------------|
E|-----------------------|


Related for Name Of My Baby tab