Song name
# A B C D E F G H I J K L M N O P Q R S T U V W X Y Z

Sandwich - Procrastinator tab

Song: Procrastinator
Band: Sandwich
Tabbed by: Mark (w.a.n.t.w.a.r. bassist)

wantwarband.multiply.com
spearfear21@yahoo.com

NOTE: Listen to the song for the proper timing... sorry im not that good at tabbing, but 
sure about this, ill make video how to play this one, comments and suggestions are 
thanks!

Tuning: standard

Guitar 1 (intro)

e|---------------|
B|---------------|
G|---------------|   (tuloy tuloy ito)
D|---------------|
A|---------------|
E|-000000000053p- 2x

Guitar 2 (Mong Alcaraz)

e|------------------------|
B|------------------------|
G|--0420-042^---0420-00---|
D|-2----2------2----2--2~-|
A|------------------------|
E|------------------------|

e|-------------------------------------|
B|------------------------88s0---------|
G|--0420-042^---0420-00---55s0- -rest--|
D|-2----2------2----2--2~--------------|
A|-------------------------------------|
E|-------------------------------------|

Verse: 1

guitar 1:

e|---------------|
B|---------------|
G|---------------|
D|---------------|
A|---------------| (just continue playing this)
E|-000000000053p-

(you gotta run don't walk...)

guitar 2:

e|------------|
B|------------|
G|--0420-042^-|
D|-2----2-----|
A|------------|
E|------------|

(it's really late)

guitar 1:

e|---------------|
B|---------------|
G|---------------|
D|---------------|
A|---------------|
E|-000000000053p-

(when you get off the train..)

guitar 2:

e|------------|
B|------------|
G|--0420-00---|
D|-2----2--2~-|
A|------------|
E|------------|

(meet me at the gate)

guitar 1:

e|---------------|
B|---------------|
G|---------------|
D|---------------|
A|---------------|
E|-000000000053p-

(you gotta push don't shove)

guitar 2:


e|------------|
B|------------|
G|--0420-042^-|
D|-2----2-----|
A|------------|
E|------------|

(Get it out of the way)

guitar 1:

e|---------------|
B|---------------|
G|---------------|
D|---------------|
A|---------------|
E|-000000000053p-

(don't wait any longer...)

guitar 2:

e|---------------|
B|---------------|
G|--0420-0224455-|
D|-2----2--------|
A|---------------|
E|---------------|

(do it today)

CHORUS:

guitar 1:

e|---------------------|
B|-5-55----------------|
G|-5-55----------------|
D|-5-55-7-77-5-55-5-55-|
A|-3-33-7-77-5-55-5-55-|
E|------5-55-3-33-3-33-|

guitar 2:

e|-----------------------|
B|-----------------------|
G|-5-55------------02420-|
D|-5-55-7-77-5-55-2------|
A|-3-33-7-77-5-55--------|
E|------5-55-3-33--------|


guitar 1:

e|---------------------|
B|---------------------|
G|-5-55----------------|
D|-5-55-7-77-9-99-9-99-|
A|-3-33-7-77-9-99-9-99-|
E|------5-55-7-77-7-77-|

guitar 2:

e|-----------------1111----------------|
B|-------------------------------------|
G|-5-55----------88----88--------------|
D|-5-55-7-77---99--------101099-101099-|
A|-3-33-7-77---------------------------|
E|------5-55---------------------------|

(We gotta operate!)

2x


e|---------------|
B|----------88s0-|
G|--0420-42~55s0-|
D|-2----2--------|
A|---------------|
E|---------------|

e|------------|
B|------------|
G|--0420-00---|
D|-2----2--2~-|
A|------------|
E|------------|

e|---------------|
B|----------88s0-|
G|--0420-42~55s0-| (HOLD!)
D|-2----2--------|
A|---------------|
E|---------------|

Repeat intro guitar1

E|-000000000053p- 2x

(You gotta glide, don't slip)

e|------|
B|---8--|
G|---5--|
D|------|
A|------|
E|------|

(Get your balance right)

e|-----------|
B|-----------|
G|--0420-42~-|
D|-2----2----|
A|-----------|
E|-----------|

(Ride with the wind)

e|------|
B|---8--|
G|---5--|
D|------|
A|------|
E|------|

(it's a beautiful sight)

e|------------|
B|------------|
G|--0420-00---|
D|-2----2--2~-|
A|------------|
E|------------|

(You gotta skip, don't jump)


e|-------|
B|---8^--|
G|---5^--|
D|-------|
A|-------|
E|-------|

(The little bumps on the way)

e|-----------|
B|-----------|
G|--0420-42~-|
D|-2----2----|
A|-----------|
E|-----------|

(Don't let it get to you)

e|------|
B|---8--|
G|---5--|
D|------|
A|------|
E|------|

(don't listen to what they say)

e|-----------|
B|-----------|
G|--0420-42~-|
D|-2----2----|
A|-----------|
E|-----------|

Repeat Chorus

(You gotta squeeze, don't pull...)

E|-000000000053p- 2x

(You gotta seek don't hide....)

e|-------------------------------------------------|
B|---8--8x8x888x8x888x8x888x8x888x8x888x8x8-224455-|
G|---5--5x5x555x5x555x5x555x5x555x5x555x5x5--------|
D|-------------------------------------------------|
A|-------------------------------------------------|
E|-------------------------------------------------|

Repeat Chorus

(hey hey!)
(hey hey!)
(harmonics)
B|-5*--

(hey hey!)

Repeat intro

E|-000000000053p- 4x

Screaming part
(again, listen for the timing
e|--------------------------------------|
B|---xx8xx8xx8x8xx8xx8x8xx8xx8xx88x888--|
G|---xx5xx5xx5x5xx5xx5x5xx5xx5xx55x555--| 2x
D|--------------------------------------|
A|--------------------------------------|
E|--------------------------------------|

Last chord

e|-----------------|
B|-----------------|
G|-----------------|
D|-2---------------|
A|-2-(let it ring)-
E|-0---------------
Tap to rate this tab
# A B C D E F G H I J K L M N O P Q R S T U V W X Y Z