Song name
# A B C D E F G H I J K L M N O P Q R S T U V W X Y Z

Sandwich - Greenpick tab

Song:      Greenpick(intro to Betamax)
Artist:    Sandwich
Album:      Marks the Spot 
Tabbed by: Paul Anthonie Antoc
E-mail:    paul_antoc@yahoo.com
Address:   Mariveles,Bataan,Philippines
contact #: 09184423602




Standard Tuning


Verse:

   "Pick na ginupit....."
e|--------------------------|
B|--------------------------|
G|--9~---7~---5~---7~-------|
D|--10~--8~---7~---8~-------|
A|--10~--8~---7~---8~-------|
E|--8~---6~---5~---6~-------|


   "Pwede na ring bass amp..."
e|--------------------------|
B|--------------------------|
G|--9~---7~---5~---7~-------|
D|--10~--8~---7~---8~-------|
A|--10~--8~---7~---8~-------|
E|--8~---6~---5~---6~-------|


   "Tuloy parin ang jamming bukas"
e|-----------|
B|-----------|
G|----7~~~---|
D|----8~~~---|
A|----8~~~---|
E|----6~~~---|

End


Greenpick Lyrics:

Pick na ginupit
Galing sa green cross alcohol
Cymbals na biak
Drum ng tubig ang tambol
Pwede na ring bass amp
Ang lumang karaoke
Kahit kulang ang kwerdas
Tuloy pa rin ang jamming bukas
Tap to rate this tab
 
# A B C D E F G H I J K L M N O P Q R S T U V W X Y Z