Song name
# A B C D E F G H I J K L M N O P Q R S T U V W X Y Z

Sandwich - Ang Pagbabalik tab

Artist: Sandwich
Title: Ang Pagbabalik
Album:  Mark The Spot

Intro:

e|-------------------------------|
B|-------------------------------|
G|-------------------------------|
D|------4------------------------|
A|---2----2--4-------------------|
E|-2-----------------------------|


e|-------------------------------|
B|-------------------------------|
G|-------------------------------|
D|-------------------------------|
A|-7---2---4---------------------|
E|-------------2----4or5---------|



Chorus:
(Drum Beat)
Kami Nagbablik Sabik Na Sabik
Ihahatid Sa Inyo Lahat Ng Pinaka-mabagsik
Kami Nagbabalik Sabik Na Sabik
Malapot Pa Sa Kumunoy....

Verse:
F#-A-B#-F#
(paulit-ulit lang...):-)

Tabbed:
...128...
Tap to rate this tab
# A B C D E F G H I J K L M N O P Q R S T U V W X Y Z