Sandwich - Bakit Ang Babae tab

tabbed by: karl_7
tuning: standard
~ adlib strumming ibig sabihin hindi bend bka malito kayo

hindi ung pinaka tab ng ginagagmit ng sandwich pero pwede na rin suguro pang jamming

pakinggan niyo nalang ung kanta para makuha niyo agad kung pano

Intro:
Gtr 1(lead)
e|----------------------------|
B|---14-17---14--14-17--(8x)--|
G|-14----------14-------------|
D|----------------------------|
A|----------------------------|
E|----------------------------|

Gtr 2(rythm)
e|----------------------------|
B|----------------------------|
G|----------------------------|
D|--7~--6~--------------------|
A|--7~--7~----(8x)------------|
E|--5~--5~--------------------|

verse:
Gtr 1
e|--------------------------------------------------------------|
B|--------9(8x)-7(8x)-5(8x)-3(8x)-------------------------------|
G|-14(8x)-------------------------6(8x)-4(8x)-6(3x)-7(3x)-9(2x)-|
D|--------------------------------------------------------------|  2x
A|--------------------------------------------------------------|
E|--------------------------------------------------------------|

Gtr 2 - kahit mag adlib lang kayo sa strumming
e|-------------------------------------------|
B|-------------------------------------------|
G|-------------------------------------------|
D|-7-------9-------11-------12-------14------|
A|-7-(8x)--9-(8x)--11-(8x)--12-(4x)--14-(4x)-|
E|-5-------7-------9--------10-------12------|

e|--------------------------------|
B|--------------------------------|
G|-7-------6-------4-------9------|
D|-7-(8x)--6-(8x)--4-(8x)--9-(8x)-|  2x
A|-5-------4-------2-------7------|
E|--------------------------------|

Chorus:
Gtr 1
e|-----------------------------------------------------------------------|
B|----------7h9-7-------------5h7-5-------------2h3-2--------------------|
G|--9-9/11-9-----9-----6-6/9-6-----6-----4-4/6-4-----4----222444666666-77|
D|-7------------------4-----------------2--------------------------------|
A|-----------------------------------------------------------------------|
E|-----------------------------------------------------------------------|
                         (2x)except ung bagsakan na part

Gtr 2
e|------------------------------------------------------|
B|------------------------------------------------------|
G|-7~--6~--4~---------99----7~--6~--4~--9~11~13~--------|
D|-7~--6~--4~--7-9-11-99----7~--6~--4~--9~11~13~--------|
A|-5~--4~--2~--7-9-11-77----5~--4~--2~--7~9~~11~--------|
E|-------------5-7-9------------------------------------|


verse 2:
...pakinggan niyo ung kanta para magets niyo agad ung iba...

Gtr 1
e|------------------------------------|
B|---10---10---------12h14-14-15-14---|
G|--9--9-9--9-(8x)--------------------|
D|------------------------------------|
A|------------------------------------|
E|------------------------------------|

Gtr 2
e|-------------------------------------------|
B|-------------------------------------------|
G|-------------------------------------------|
D|-7-------9-------11-------12-------14------|
A|-7-(8x)--9-(8x)--11-(8x)--12-(4x)--14-(4x)-|
E|-5-------7-------9--------10-------12------|

e|--------------------------------|
B|--------------------------------|
G|-7-------6-------4-------9------|
D|-7-(8x)--6-(8x)--4-(8x)--9-(8x)-|  2x
A|-5-------4-------2-------7------|
E|--------------------------------|

repeat chorus
repeat intro

Solo:
e|-----------------------------------|
B|-----------------------------------|
G|-----------------------------12----|-!
D|-----7-12-----6-9------11-14-------|
A|-5-9------4-7-----9-12-------------|
E|-----------------------------------|

repeat chorus
instrumental do chorus tab
repeat intro twice lang tapos the end na!!!

Unang kantang ginawan ko ng tab sana magustuhan niyo, paki-rate na lang...
Maraming salamat sa gumagawa ng tab na toh :)
Tap to rate this tab
 
# A B C D E F G H I J K L M N O P Q R S T U V W X Y Z