Song name
# A B C D E F G H I J K L M N O P Q R S T U V W X Y Z

Sandwich - Astroholiday tab

Artist: andwich
Song:Astro holiday
Album: Thanks to the moon
tabbed by:Nefas_fitz
Messa

Intro(palm mute)
E|-----------------------------------------------------------|
B|-----------------------------------------------------------|
G|-----------------------------------------------------------|        
D|-----------------------------------------------------------|
A|-----------------------------------------------------------|
E|-5-3-5-3-5-3-5-3-5-3-5-6-----------------------------------|

Noisy part (do power chords)
E|-----------------------------------------------------------|
B|-----------------------------------------------------------|
G|-----------------------------------------------------------|        
D|-7-5-7-5-7-5-7-5-7-5-7-8-----------------------------------|
A|-7-5-7-5-7-5-7-5-7-5-7-8-----------------------------------|
E|-5-3-5-3-5-3-5-3-5-3-5-6-----------------------------------|

Verse
E|-----------------------------------------------------------|
B|-----------------------------------------------------------|
G|-----------------------------------------------------------|        
D|-7-5-7-5-7-5-7-5-7-5-7-8-----------------------------------|
A|-7-5-7-5-7-5-7-5-7-5-7-8-----------------------------------|
E|-5-3-5-3-5-3-5-3-5-3-5-6-----------------------------------|

E|-----------------------------------------------------------|
B|-----------------------------------------------------------|
G|-----------------------------------------------------------|        
D|-7-5-7-5-7-5-7-5-7-5-7-8-----------------------------------|
A|-7-5-7-5-7-5-7-5-7-5-7-8-----------------------------------|
E|-5-3-5-3-5-3-5-3-5-3-5-6-----------------------------------|
	

Chorus
E|-----------------------------------------------------------|
B|-----------------------------------------------------------|
G|-----------------------------------------------------------|        
D|-----------------------------------------------------------|
A|-7-7-7-7-7-7--5-5-5-5-5-5----------------------------------|
E|-5-5-5-5-5-5- 3-3-3-3-3-3----------------------------------|


Verse 2
E|-----------------------------------------------------------|
B|-----------------------------------------------------------|
G|-----------------------------------------------------------|        
D|-7-5-7-5-7-5-7-5-7-5-7-8-----------------------------------|
A|-7-5-7-5-7-5-7-5-7-5-7-8-----------------------------------|
E|-5-3-5-3-5-3-5-3-5-3-5-6-----------------------------------|

E|-----------------------------------------------------------|
B|-----------------------------------------------------------|
G|-----------------------------------------------------------|        
D|-7-5-7-5-7-5-7-5-7-5-7-8-----------------------------------|
A|-7-5-7-5-7-5-7-5-7-5-7-8-----------------------------------|
E|-5-3-5-3-5-3-5-3-5-3-5-6-----------------------------------|

Balik sa chorus then........

Bridge
Give me some of that
E|-----------------------------------------------------------|
B|-----------------------------------------------------------|
G|-----------------------------------------------------------|        
D|---2-4-5---------------------------------------------------|
A|---2-4-5---------------------------------------------------|
E|---0-2-3---------------------------------------------------|
	
Give me some of that
E|-----------------------------------------------------------|
B|-----------------------------------------------------------|
G|-----------------------------------------------------------|        
D|---2-4-5---------------------------------------------------|
A|---2-4-5---------------------------------------------------|
E|---0-2-3---------------------------------------------------|

Give me some of that
E|-----------------------------------------------------------|
B|-----------------------------------------------------------|
G|-----------------------------------------------------------|        
D|---2-4-5---------------------------------------------------|
A|---2-4-5---------------------------------------------------|
E|---0-2-3---------------------------------------------------|

Then balik sa intro, just listen to the song...... Really rocks, lalo na pag live...
Galing nila nung pumunta cla d2 sa dvo.
Paki rate please.......
regardz sa mga taga davao,mga taga brokenshire..
Tap to rate this tab
# A B C D E F G H I J K L M N O P Q R S T U V W X Y Z