Song name
# A B C D E F G H I J K L M N O P Q R S T U V W X Y Z

Sandwich - For Your Consideration tab

For Your Consideration
artist: Sandwich
album: Thanks to the Moon's Gravitational Pull
Tuning: Drop D

Intro:

e|-----------------------------|
B|-----------------------------|
G|-----------------------------| x4
D|--2-2-2-4-2-2-7---7-4-2-2----|
A|--2-2-2-4-2-2-7---7-4-2-2----|
D|--2-2-2-4-2-2-7---7-4-2-2----|

Verse:

palm-mute
e|-----------------------------|
B|-----------------------------|
G|-----------------------------| x12
D|--2-2-2-4-2-2-7--7-4-2-2-----|
A|--2-2-2-4-2-2-7--7-4-2-2-----|
D|--2-2-2-4-2-2-7--7-4-2-2-----|

chorus:

e|-----------------------------|
B|-----------------------------|
G|-----------------------------| x4
D|--2--2-4-4-4-4-4--7~---------|
A|--2--2-4-4-4-4-4--7~---------|
D|--2--2-4-4-4-4-4--7~---------|



Guitar 1
e|-------------------------------------|
B|-------------------------------------|
G|-------------------------------------|
D|--2-2-2-4-2-2-7~---------------------|
A|--2-2-2-4-2-2-7~---------------------|
D|--2-2-2-4-2-2-7~---------------------|
guitar 2
e|-------------------------------------|
B|------------------10--12--9----------|
G|-------------------------------------|
D|-------------------------------------|
A|-------------------------------------|
D|-------------------------------------|
second time, alternating lang ang riffs pagkatapos ng rythm part
e|-------------------------------------|
B|------------------14--10--12---------|
G|-------------------------------------|
D|-------------------------------------|
A|-------------------------------------|
D|-------------------------------------|   repeat 8 times

outro:

Repeat main riff hanggang mag-end ung kanta

main riff:

e|-----------------------------|
B|-----------------------------|
G|-----------------------------|
D|--2-2-2-4-2-2-7---7-4-2-2----|
A|--2-2-2-4-2-2-7---7-4-2-2----|
D|--2-2-2-4-2-2-7---7-4-2-2----|

sorry hindi ko pa makapa ang lead sa outro

Marc Abaya IDOL!!! Astig Sandwich!! Astig ang kantang 'to!!!
Tap to rate this tab
 
# A B C D E F G H I J K L M N O P Q R S T U V W X Y Z