Song name
# A B C D E F G H I J K L M N O P Q R S T U V W X Y Z

Sandwich - Masilungan tab

Tabbed By : Tan, Ralph
e-mail: p_2_D_aolo@yahoo.com
*Pagpasensyahan nyo na sana kung ndi 100% pero laban na ‘to!
 Paki-email niyo nalang ako pag may suggestions or corrections..

Tuning: Standard
Adlib: After 1st Chorus
Rhythm Guitar: Chorus’ Chords
e|---------------------------------------------------------------|
B|---------------------------------------------------------------|
G|---------------------------------------------------------------|
D|---------------------4------4h6---4----------------------------|
A|-4h7----4s2---4--7-------7-----------7----4--------------------|
E|----------------------------------------------7---5--4---------|

e|---------------------------------------------------------------|
B|---------------------------------------------------------------|
G|-------------9-9----9----6---4-----4--6------------------------|
D|-----------------9---------------4-------4h6-------------------|
A|-4---7-------------------------------------------7-------------|
E|---------------------------------------------------------------|
  
   ---------God Bless Ma Men---------------------------------------
Tap to rate this tab
# A B C D E F G H I J K L M N O P Q R S T U V W X Y Z