Song name
# A B C D E F G H I J K L M N O P Q R S T U V W X Y Z

Sandwich - Walang Kadala Dala tab

walang kadala-dala

sandwich

tabbed by aaron joshua abelardo

legend:
 /-slide
 p-pull off
tuning: standard

intro:

 |------------------------------------------|
 |--------------------------------10p8------|
 |--9/12-12-9-9/12-12-9-9/12-12-9-----9-----|
 |------------------------------------------|
 |------------------------------------------|
 |------------------------------------------|

 |------------------------------------------|
 |--------------------------------12p10-----|
 |--9/12-12-9-9/12-12-9-9/12-12-9------12---|
 |------------------------------------------|
 |------------------------------------------|
 |------------------------------------------|
 (repeat 3x)

Verse:
 guitar 1
 |----------------------------------------|
 |----------------------------------------|
 |----------------------------------------|
 |-5-------------------9------------------|
 |-5-------------------9------------------|
 |-3-------------------7------------------|
  Laging naniniwala... Hindi nagsasawa..

 guitar 2
 |----------------10-10-------------------|
 |------10-10--12-------------------------|
 |--12------------------------------------|
 |----------------------------------------|
 |----------------------------------------|
 |----------------------------------------|

pre-chorus
 guitar 1
 |----------------|
 |----------------|
 |--55555555555---|
 |--55555555555---|
 |--33333333333---|
 |----------------|
 
 guitar 2
 |----------15----------15------|
 |-------12----12----12-----12--|
 |----12----------12------------|
 |------------------------------|
 |------------------------------|
 |------------------------------| x 2

 chorus:(timingan nyo lng po 2ng chorus)
 guitar 1
 |-------------------------------|
 |-------------------------------|
 |-------------------------------|
 |--5---------9--------------10--|
 |--5---------9--------------8---|
 |--3---------7--------------8---|
    walang.......kadala-dala
 guitar 2
 |--------------------------------| 
 |-------------------12-12--------|
 |--9-9-9---12-12-12--------------|
 |--------------------------------|
 |--------------------------------|
 |--------------------------------|
 guitar 1
 |-------------------------------|
 |-------------------------------|
 |-------------------------------|
 |--5---------9--------------10--|
 |--5---------9--------------8---|
 |--3---------7--------------8---|
   napa.............patulala
 guitar 2
 |--------------------------------| 
 |-------------------12-12--------|
 |--9-9-9---12-12-12--------------|
 |--------------------------------|
 |--------------------------------|
 |--------------------------------|
 guitar 1
 |-------------------------------|
 |-------------------------------|
 |-------------------------------|
 |--5---------9--------------10--|
 |--5---------9--------------8---|
 |--3---------7--------------8---|
    walang.......kadala-dala
 guitar 2
 |--------------------------------| 
 |-------------------12-12--------|
 |--9-9-9---12-12-12--------------|
 |--------------------------------|
 |--------------------------------|
 |--------------------------------|
 guitar 1
 |-------------------------------|
 |-------------------------------|
 |-------------------------------|
 |--5---------9--------------10--|
 |--5---------9--------------8---|
 |--3---------7--------------8---|
   naghihintay.........sa wala
 
 repeat intro
 repeat verse
 repeat pre-chorus
 repeat chorus
 
 adlib?
                   |-------------------|
                   |-------------------|
   bass muna tapos |-------------------|
                   |---777777--44444---|
                   |---777777--44444---|(repeat several times)
                   |---555555--22222---|(strum)
 
 repeat pre-chorus
 repeat chorus 
 
 |-------------|
 |-------------|
 |-------------|
 |--5555555----|
 |--5555555----|
 |--3333333----|
 hindi nadadala, nadadala (4x)
 |-------------------------------|
 |-------------------------------|
 |-------------------------------|
 |--5---------9--------------10--|
 |--5---------9--------------8---|
 |--3---------7--------------8---|
   naghihintay.........sa wala
 
 end 
 paki-rate po
 ty!!!!!!!!!!!
 sandwich ang lufet
 
Tap to rate this tab
# A B C D E F G H I J K L M N O P Q R S T U V W X Y Z