Song name
# A B C D E F G H I J K L M N O P Q R S T U V W X Y Z

Sandwich - Resbak tab

Resbak by sandwich
Rabbed by: king Aragones
Tuning: EADGBe
Message: dali lng to.. 2nd time mag tab.. ung tuliro ung una.. binabati ko pala si 
jovi, versoza, si charles, sa lahat ng taga marist at timothy.. intindihin nio na lng tong 
madali lng ung kanta kya enjoy.

e|------7-7-7-7------------6----6--4----7-7-7-7-------6--9------------------|
B|--------------------------------------------------------------------------|
G|--------------------------------------------------------------------------|
D|--------------------------------------------------------------------------|
E|--------------------------------------------------------------------------|
A|--------------------------------------------------------------------------|

e|-----10-10-10-10----------8-8---6------8-8-8-8---6-6-4--------------------|
B|--------------------------------------------------------------------------|
G|--------------------------------------------------------------------------|
D|--------------------------------------------------------------------------|
E|--------------------------------------------------------------------------|
A|--------------------------------------------------------------------------|


verse
e|----------------------------------------------------------------------------------|
B|----------------------------------------------------------------------------------|
G|-------7—---10—-10--10---9---7---10--10--10--9-5---10--10--10--9--5—-10--10--10---|
D|-------7----10--10--10---9---7---10--10--10--9-5---10—-10--10--9--5--10--10--10---|
A|-------5----8---8----8---7---5---8—-8----8---7-3----8—-8---8---7--3--8---8---8----|
E|----------------------------------------------------------------------------------|

e|-----------------------------------------------------------|
B|-----------------------------------------------------------|
G|----9---7---10--10--10---9---7---10---10---10---9---5-3----|
D|----9---7---10--10--10---9---7---10---10---10---9---5-3----|
A|----7---5---8—--8---8----7---5---5----8—---8----8---7-3----|
E|-----------------------------------------------------------|

chorus:

GITARA UNO:

e|-----------------------------------------------------------|
B|-----------------------------------------------------------|
G|------10-9-10-9-10-9-10-9--10-9--10--9-10--9---------------|
D|------10-9-10-9-10-9-10-9--10-9--10--9-10--9---------------|
A|------8--7-8--7-8--7-8--7--8--7--8---7-8---7---------------|
E|-----------------------------------------------------------|

GITARA DOS:

Uulit lang to pagkatapos bangitin ang “RESBAAAAAK!!!” un.. tapos..uhh..
e|------7-7-7-7------------6----6--4----7-7-7-7-------6--9------------------|
B|--------------------------------------------------------------------------|
G|--------------------------------------------------------------------------|
D|--------------------------------------------------------------------------|
E|--------------------------------------------------------------------------|
A|--------------------------------------------------------------------------|

e|-----10-10-10-10----------8-8---6------8-8-8-8---6-6-4--------------------|
B|--------------------------------------------------------------------------|
G|--------------------------------------------------------------------------|
D|--------------------------------------------------------------------------|
E|--------------------------------------------------------------------------|
A|--------------------------------------------------------------------------|

Tapos outro:
e|-----------------------------------------------------------|
B|-----------------------------------------------------------|
G|------10-9-10-9-10-9-10-9--10-9--10--9-10--9---------------|
D|------10-9-10-9-10-9-10-9--10-9--10--9-10--9---------------|
A|------8--7-8--7-8--7-8--7--8--7--8---7-8---7---------------|
E|-----------------------------------------------------------|
Tap to rate this tab
 
# A B C D E F G H I J K L M N O P Q R S T U V W X Y Z