Guitaretab - guitar tabs
Song name
# A B C D E F G H I J K L M N O P Q R S T U V W X Y Z

Sandwich - Goodnight January tab

Goodnight January  Sandwich
Tabbed by: Roca Edu  rocadotnet@yahoo.com
Greetings: Hon pra sau, mis n kta.. sbi mo gs2 mo ung solo,, ec lng sa pagpantasya
ky mong ha...
Note: Di ko lam kung tama to, katunog lng, basta laruin nyo lng ung nota kung san
ung part ni mong sa chorus. Kung mali, kayo na bahala magbago. Paki-rate pls. Inuulit ko di
sure sa lahat ng parts,, my nanghiram kc ng cd ko di na nabalik, cnu kaya un hon.. 
ko lang ung naaalala ko..
Padamihin nga pala ang tabs ng chicosci at sandwich!!!

Chorus yata (hehe) d ako sure..: Goodnight..
e|--------------------------------------|
B|--------------------------------------|
G|--9-9---7-7---------------------------| 4x
D|--9-9---7-7---9-----------------------|
A|--7-7---5-5---9-----------------------|
E|--------------7-----------------------|

Verse: palm mute: the story of your life is in the key of d..
e|-------------------------------------------------------------------|
B|-------------------------------------------------------------------|
G|---44444444-77776666-----------------------------------------------|
D|---44444444-77776666-----------------------------------------------|
A|---22222222-55554444-----------------------------------------------|
E|-------------------------------------------------------------------|

Repeat Chorus

Solo 4x: di ko lam kung tama,, bahala kau san note nyo kunin bsta gn2 pattern ko
e|-------------------------------------------------------------------|
B|-------------------------------------------------------------------|
G|-------------8---------------------8----10----8--6-----------------|
D|-----9---7-------9--7-----9---7------------------------------------|
A|--7--------------------7-------------------------------------------|
E|-------------------------------------------------------------------|

O kaya ito
[ Tab from: http://www.guitaretab.com/s/sandwich/82552.html ]
e|-----------------------------------------------------------------------------|
B|-----------------10---------------------10--12--10--8------------------------|
G|--------11---9--------11--9-----11-9----------------------------------------|
D|----9------------------------9-----------------------------------------------|
A|-----------------------------------------------------------------------------|
E|-----------------------------------------------------------------------------|


Repeat verse chords

Bridge 1:Dont take it out on me . .
e|-------------------------------------------|
B|-------------------------------------------|
G|----9-9---7-7---4-4----44444444------------|
D|----x-x---x-x---x-x----xxxxxxxx------------| 4x
A|----7-7---5-5---2-2----22222222------------|
E|-------------------------------------------|

Bridge 2: Im taking the long way home.. (bass to)
e|------------------|
B|------------------|
G|------------------| ulit ulitin lang hanggang sa pmasok ung guitars
D|------------------|
A|---7----5---------|
E|-------------7----|
Then:
Gtr 1 P.M.
e|-----------------------------------------------|
B|-----------------------------------------------|
G|--99999999---77777777----4444444444444444------|4x
D|--99999999---77777777----4444444444444444------|
A|--77777777---55555555----2222222222222222------|
E|-----------------------------------------------|
Gtr 2 : Strum lng kau bagsak2x ng chords na to: e d b (ung higher notes)

Outro:
e|-----------------------------|
B|-----------------------------|
G|---9999-7777-4444-7777-------|
D|---9999-7777-4444-7777-------|
A|---7777-5555-2222-5555-------|
E|-----------------------------|

End:
e|--------------------------------------|
B|--------------------------------------|
G|--9-9---7-7---------------------------|
D|--9-9---7-7---9-----------------------|
A|--7-7---5-5---9-----------------------|
E|--------------7-----------------------|
Related for Goodnight January tab