Sandy Dane - Peace Love And Icecream chords

Highlighted       Show chord diagrams
Tuning: Standard w/ Capo on 4th fret

Tabbed by: Simply G.C.

Strumming pattern on intro is: down,up,up,down,up,up,down

Intro:
       ^ ^     ^ ^       ^ ^     ^ ^       ^ ^     ^ ^  
e|--3--3-3--3--3-3--3p2--2-2--2--2-2--2h3--3-3--3--3-3---3----|
B|--3--3-3--3--3-3--3----3-3--3--3-3--3----3-3--3--3-3---3----|
G|--0--0-0--0--0-0--0----0-0--0--0-0--0----0-0--0--0-0---0----|
D|--2--2-2--2--2-2--2----2-2--2--2-2--2----2-2--2--2-2---2----|
A|--0--0-0--0--0-0--0----0-0--0--0-0--0----0-0--0--0-0---3----|
E|-------------------------------------------------------0----|
-
-
Verse:

These aren't very accurate, it's just a simple tab for it but better if you just strum it.

   G    play this on every last    Cadd9                            Am
        G chord on each verse  
e|-3--|   --3-----------3------|   --3---3-----3-3-3-3-------3--|   --3--|
B|-3--|   --3---3-----3-3------|   --3-3-3---3-3-3-3-3-----3-3--|   --1--|
G|-0--|   --0-0-0-----0--------|   --0-0-----0---0-0-0-----0----|   --2--|
D|-0--|   --0-0----------------|   --2-----------2-----0h2------|   --2--|
A|-2--|   --2-----0h2----------|   --3----0h3----3--------------|   -----|
E|-3--|   --3-------------0h3--|   -----------------------------|   -----|
-
G
It was peace love and ice cream, flowers and tambourines
Cadd9
Butterflies high, in the clear blue sky
        Am                                                G
And the summer breeze, and we knew how to breath freedom
 
G
With tears full of laughter, happy ever afters
Cadd9
And stories to tell, oh we told them so well
       Am                                              G
In the glow of the fire, we sang the songs of freedom
-
- 
Refrain:
  B7 without
 1st finger   Cadd9        F          C
e|---2---|   ---3---|   ---1---|   ---3---|
B|---0---|   ---3---|   ---1---|   ---1---|
G|---2---|   ---0---|   ---2---|   ---0---|
D|---0---|   ---2---|   ---3---|   ---0---|
A|---2---|   ---3---|   ---3---|   ---3---|
E|-------|   -------|   -------|   ---0---|

B7                          Cadd9 
It's time to relive all the memories 
B7                   F
Catch every day in a frame 
-
-
Chorus:
              G
Sing with me, na na na na na..
          Cadd9                              Am
Let us go back in time, just for a minute to 69
C                        G
Come sing along with me, na na na na na..
          Cadd9                                       Am
Let us go back again, we're praying this time it will never end
   C let ring                    
So come sing along with me
-
-
Verse:

G
It was peace love and ice cream, we laid down in the grass
       Cadd9
In the garden of Eden, we hoped it would last 
         Am                                           G
but then time took away, the moment we faced freedom
-
-
Refrain:

B7                          Cadd9 
It's time to relive all the memories 
B7                   F
Catch every day in a frame
-
-
Chorus:
              G
Sing with me, na na na na na..
          Cadd9                              Am
Let us go back in time, just for a minute to 69
C                        G
Come sing along with me, na na na na na..
          Cadd9                                       Am
Let us go back again, we're praying this time it will never end
                       F  
Come sing along with me
                       G  
Come sing along with me
          Em           F         
Come sing along with me
-
-      G
It was peace, love and ice cream, flowers and tambourines
Cadd9
Na na na na na..
-
       G
It was peace love and icecream, we sat down by the fire singin' 
Cadd9
Na na na na na..
           E   C         Am
This is our chance to go back again 
-
-  C                        G
So come sing along with me, na na na na na..
          Cadd9                              Am
Let us go back in time, just for a minute to 69
C                        G
Come sing along with me, na na na na na..
          Cadd9                                       Am
Let us go back again, we're praying this time it will never end
   C                        G  
So come sing along with me..




Thanks guys!!Hooray for my second tab!!Please comment and rate its not very 
accurate, just here for you to jam :D
Tap to rate this tab
 
# A B C D E F G H I J K L M N O P Q R S T U V W X Y Z