Guitaretab - guitar tabs
Song name
# A B C D E F G H I J K L M N O P Q R S T U V W X Y Z

Sandy Grieve - Track tab

TRACK2.TAB

This TAB transcription was created using TAB MASTER version 1.0
If you enjoy using this program, please consider telling the author
about it: Ofir Zwebner, e-mail: ofirz1@ccsg.tau.ac.il
                    snail-mail: Ehoud 10, Tel Aviv, 69936, Israel

This program is freeware, but it took me some work to make it, so
your financial contribution is welcome.

--------------------------------------------------------------------


e:----------------------------------------------------------------------------------|
B:----------------------------------------------------------------------------------|
G:----------------------------------------------------------------------------------|
D:----------------------------------------------------------------------------------|
A:------------------7-----7-----7-----9p7-----7-----9p7-repeat-pattern-quickly-to-su|
E:--0-0---0-0---0-0---0-0---0-0---0-0-----0-0---0-0---------------------------------|
[ Tab from: http://www.guitaretab.com/s/sandy-grieve/125228.html ]
e:----------------------------------------------------------------------------------|
B:----------------------------------------------------------------------------------|
G:----------------------------------------------------------------------------------|
D:----------------------------------------------------------------------------------|
A:it-the-move-to-:---------------------------------7-------------------repeat-twice-|
E:-----------------0-0-7p6p5-5h6h7-0-0-7p6p5-5h6h7---0-0-7p6p5-5h6h7-3--------------|

e:----------------------------------------------------------------------------------|
B:----------------------------------------------------------------------------------|
G:----------------------------------------------------------------------------------|
D:----------------------------------------------------------------------------------|
A:-----main-riff:-----------------7---played-quickly--------------------------------|
E:----------------0-0-7p6p5-5h6h7---3-----------------------------------------------|

e:--------------------------------------------------------------------|
B:--------------------------------------------------------------------|
G:---------------------------------------2----------0-----2-2p1p0-0---|
D:---------------------2-2-2222-7-7-7777---5-5-5555---2-2-------------|
A:--------chord-riff-:-2-2-2222-7-7-7777---5-5-5555---2-2-------------|
E:---------------------0-0-0000-5-5-5555---3-3-3333---0-0-------------|

make the chord riff more aggressive as song picks up pace
Related for Track tab
Advertisement will be closed in 10 seconds