Song name
# A B C D E F G H I J K L M N O P Q R S T U V W X Y Z

Sandy Nelson - Drums A Go Go tab

#----------------------------------PLEASE NOTE---------------------------------#
#This file is the author's own work and represents their interpretation of the #
#song. You may only use this file for private study, scholarship, or research. #
#------------------------------------------------------------------------------#


Author: Sandy Nelson

Title: Drums a go go

Guitar Tab by Fepo
Tuning: Standard E A D G B E

Listen to the song and you know how to play  :)

Have Fun

e|---------------------------------------------------------|
B|---------------------------------------------------------|
G|-----7~~~--10--7-------7~~~--10  7-----------------------|
D|--7-----------------7------------------------------------|
A|---------------------------------------------------------|
E|---------------------------------------------------------|


e|---------------------------------------------------------|
B|---------89~~~--8---------------------------------------|
G|--7--10-------------107----------6----------------------|
D|---------------------------------------------------------|
A|---------------------------------------------------------|
E|---------------------------------------------------------|


e|---------------------------------------------------------|
B|---------------------------------------------------------|
G|-----6~~~--9--6--------6~~~--9--6------------------------|
D|--6-----------------6------------------------------------|
A|---------------------------------------------------------|
E|---------------------------------------------------------|


e|---------------------------------------------------------|
B|--------78~~~--7----------------------------------------|
G|--6--9------------9--6------------5----------------------|
D|---------------------------------------------------------|
A|---------------------------------------------------------|
E|---------------------------------------------------------|

e|---------------------------------------------------------|
B|---------------------------------------------------------|
G|--4-5-4-5-4-5-4-5----4-5-4-5-4-5-4-5---------------------|
D|---------------------------------------------------------|
A|---------------------------------------------------------|
E|---------------------------------------------------------|


e|---------------------------------------------------------|
B|--5-6-5-6-5-6-5-6----------------------------------------|
G|-------------------4-5-4-5-4-5-4-5-----------------------|
D|---------------------------------------------------------|
A|---------------------------------------------------------|
E|---------------------------------------------------------|

e|---------------------------------------------------------|
B|--7-8-7-8----5-6-5-6-------------------------------------|
G|----------------------4-5-4-5-4-5-4-5------5-------------|
D|---------------------------------------------------------|
A|---------------------------------------------------------|
E|---------------------------------------------------------|

e|---------------------------------------------------------|
B|---------------------------------------------------------|
G|-----7~~~--10--7-------7~~~--10  7-----------------------|
D|--7-----------------7------------------------------------|
A|---------------------------------------------------------|
E|---------------------------------------------------------|


e|---------------------------------------------------------|
B|---------89~~~--8---------------------------------------|
G|--7--10-------------107---------------------------------|
D|---------------------------------------------------------|
A|---------------------------------------------------------|
E|---------------------------------------------------------|
Tap to rate this tab
# A B C D E F G H I J K L M N O P Q R S T U V W X Y Z