Song name
# A B C D E F G H I J K L M N O P Q R S T U V W X Y Z

Sani-t - Me No Like tab

Sani-T? | me no like.
Tabbed by Freak | FREAK_999@hotmail.com.
  
 (ntro) = sounds best with treble bass 4 whole song
E[-------------------------------------------------------------]
B[-------------------------------------------------------------]
G[-------------------------------------------------------------]
D[-------------------------------------------------------------]
A[------2-------3-------2--------------2-------3------2--------]
E[--3-3---3-3-3---3-3-3---3-1--3---3-3---3-3-3--3-3-3--3-1--3--]
                                
(chorus)
E[---------------------------------------------------------]
B[---------------------------------------------------------]
G[---------------------------------------------------------]
D[--5-5-4-5-5-5-5-5-5-5-4-5-3---5-5-4-5-5-5-5-5-5-5-4-5-3--]
A[--5-5-2-5-5-5-3-5-5-5-2-5-3---5-5-4-5-5-5-3-5-5-5-2-5-3--]
E[--3-3-2-3-3-3-3-3-3-3-2-3-1---3-3-2-3-3-3-3-3-3-3-2-3-1--]

                                (verse)
E[-----------------------------------------------------------------]
B[-----------------------------------------------------------------]
G[-----------------------------------------------------------------]
D[-----------------------------------------------------------------]
A[--2-2-2-x-5-5-5-x-2-2-2-x-5-5-5-x-3-3-3-x-3-3-3-x-3-3-3-x-3-3-3--]
E[--3-3-3-x-3-3-3-x-3-3-3-x-3-3-3-x-2-2-2-x-5-5-5-x-2-2-2-x-5-5-5--]
 
                                
(bass) end 
G[---------------------------------------------------------]
D[---------------------------------------------------------]
A[------2-------3-------2-----------2-------3-------2------]
E[--3-3---3-3-3---3-3-3---3-1---3-3---3-3-3---3-3-3---3-1--]

PLAY ORDER: Intro. Chorus. Verse. Chorus. Verse. End.

It sounds good if the guitar stops playing on the chorus and lets the bass(treble) play with the drums an finnish so the guitar can start the verse.

           VERSE: I never really liked, any of my friends,
                        The things they did, lots of things they said,
                      Oh, I’m gonna laugh, off my ass,
                        When they die, they are gonna frie………in hell.
                        Burn well………in hell………
                        I know you’ll do well, burning in hell…………….
            
 
:: Ultimate Guitar Archive :: 
http://www.ultimate-guitar.com 

Tap to rate this tab
# A B C D E F G H I J K L M N O P Q R S T U V W X Y Z