Guitaretab - guitar tabs
Song name
# A B C D E F G H I J K L M N O P Q R S T U V W X Y Z

Sani-t - The Band tab

Sani-T? | the band.
 Tabbed by Matt | blackdiamond@thegrid.net.
  
Whole song in distortion
>> = carry out the chord into the next
> = slide to next chord instead of struming it
          
[----------------------------------]
[----------------------------------]
[----------------------------------]
[-5-5-5->-7-7-7->-8-8-8->-7-7-7->--](corus)
[-3-3-3->-5-5-5->-6-6-6->-5-5-5->--]
[-3-3-3->-5-5-5->-6-6-6->-5-5-5->--]

[-------------------]
[-------------------]
[-------------------]
[-5->>-7->>-8->>-7--](verse)
[-5->>-5->>-6->>-5--]
[-3->>-5->>-6->>-5--]

[------------------------------------------------------]
[------------------------------------------------------]
[------------------------------------------------------]
[-5-5-5->-7-7-7->-8-8-8->-7-7-7->-5-5-5-5-5-5->-7-7-7--]  (end)
[-5-5-5->-5-5-5->-6-6-6->-5-5-5->-3-3-3-3-3-3->-5-5-5--]
[-3-3-3->-5-5-5->-6-6-6->-5-5-5->-3-3-3-3-3-3->-5-5-5--]


[ Tab from: http://www.guitaretab.com/s/sani-t/26432.html ]
order of play: (chorus x5)(verse x6)(chorus x4)
               (verse x6)(chorus x4)(verse x6)
               (chorus x4)(verse x6)(chorus x5)(end)

VERSE: 
    \"Satin is his name, we don't play his game, and well never sell our souls. You are home alone, there's a stranger on the phone, and your momys far away. What will you do, when he asks you, if your parents are at home.\"
    
    \"Go grab a bat, lets go beat up Matt, even if he tells us no way. Grab his bass, hit him in the face, even if you know it hurts. Satin is his name, we don't play his game, we just like to be real jerks.\"

    \"Jump in the car, lets run over Mark, even if he is asleep. Go get a lighter, set his drums afire, even if you know it's wrong. Satin is his name, we don't play his game, we just like to have our fun.\"

    \"Go grab Ryan, feed him to the lyons, shoot him if he's still alive. Grab his guitar, through it in the car, make sure the car explodes. Satin is his name, we are not afraid, and well never be his friend.\"

END: 
    \"NEVER BE HIS FRIEND, NEVER BE HIS FRIEND, NEVER BE HIS FRIEND...........EVER AGAIN.\"    
:: Ultimate Guitar Archive :: 
http://www.ultimate-guitar.com 



Related for The Band tab