Song name
# A B C D E F G H I J K L M N O P Q R S T U V W X Y Z

Sank - Kurva tab

INTRO:

      PART 1:                  PART 2:         END: 
E-------------------------|-------------------|----|
B-------------------------|-------------------|----|
G-------------------------|------0-------0----|-9--|
D---7-9---7-9--7-10---7-10|----2---2---2---2--|-7--|
A-0-----0-----0-----0-----|--5-------0--------|-0--|
E-------------------------|-------------------|----|


VERSE:

    PART 1:               PART 2:
E---------------|-----------------------|
B---------------|-----------------------|
G---------------|--5-5-5-5-5------------|
D-7-9-9-7-10-10-|--5-5-5-5-5--5-5-5-5-5-|
A-0-0-0-0-0--0--|--3-3-3-3-3--5-5-5-5-5-|
E---------------|-------------3-3-3-3-3-|


CHORUS:


E----------|
B----------|
G-2---5----|
D-2-3-5-5--|
A-0-3-3-5--|
E---1---3--|
Tap to rate this tab
 
# A B C D E F G H I J K L M N O P Q R S T U V W X Y Z