Song name
# A B C D E F G H I J K L M N O P Q R S T U V W X Y Z

Sans Aids - Forklift tab

                            Sans AIDS - Forklift
                         from their 2010 EP Loaners

Sans AIDS is the former project of Peter Sagar, who is the live guitarist
for Mac DeMarco. Peter now records under the name Homeshake.

You can find this song, along with the rest of the Loaners EP, on YouTube.
Also, I had trouble working out some of the lyrics, so if anyone knows
what the lyrics are officially, then please post them in the comments.

Intro:
e|-----------------------------------------------------------------|
B|-----------------------------------------------------------------|
G|-----------------------------------------------------------------| x2
D|-----------------------------------------------------------------|
A|---------8-8-8-8-5-5-5-5-7-7-5-5---------7-7-7-7---------7-7-7-7-|
E|-5-5-5-5-------------------------8-8-8-8---------8-8-8-8---------|


Pre-verse:
e|-----------------|
B|-----------------|
G|-----------------| x4
D|-------9-----7---|
A|-----7---------5-|
E|-8-8-----0-0-----|


Verse:
"Don't try, it's passive, we left their trash and you're what to do,
Sittin' here jonesin', while our so-and-so is comin', it was on the news,
The forklift burns a hole, where our hangout is supposed to go,
The forklift burns a hole, where our hangout is supposed to go"
e|-----------------|
B|-----------------|
G|-----------------| x16
D|-------9-----7---|
A|-----7---------5-|
E|-8-8-----0-0-----|


Chorus:
e|-5-5-5-5--8--8--8--8------------------8--8--8--8----------8--8--8--8---------|
B|-5-5-5-5-10-10-10-10------------------8--8--8--8----------8--8--8--8---------|
G|-5-5-5-5-10-10-10-10-7-7-7-7-9-9-7-7--9--9--9--9-9-9-9-9--9--9--9--9-9-9-9-9-| x2
D|-7-7-7-7-10-10-10-10-7-7-7-7-9-9-7-7-10-10-10-10-9-9-9-9-10-10-10-10-9-9-9-9-|
A|-7-7-7-7--8--8--8--8-5-5-5-5-7-7-5-5-10-10-10-10-7-7-7-7-10-10-10-10-7-7-7-7-|
E|-5-5-5-5------------------------------8--8--8--8----------8--8--8--8---------|


Pre-verse:
Verse:
e|-----------------|
B|-----------------|
G|-----------------| x4
D|-------9-----7---|
A|-----7---------5-|
E|-8-8-----0-0-----|


Verse:
"Cold mornin's waitin', your blunt head is shaking, what to say, what to say,
There's no more summer, this is such a bummer, let us pray, let us pray,
The forklift burns a hole, where our hangout is supposed to go,
The forklift burns a hole, where our hangout is supposed to go"
e|-----------------|
B|-----------------|
G|-----------------| x16
D|-------9-----7---|
A|-----7---------5-|
E|-8-8-----0-0-----|


Pre-chorus:
e|----------------------------|
B|----------------------------|
G|---------9-9.----------9.---|
D|-10-10.--9-9.--10-10.--9.---|
A|-10-10.--7-7.--10-10.--7.---|
E|--8--8.---------8--8.-------|


Chorus:
e|-5-5-5-5--8--8--8--8------------------8--8--8--8----------8--8--8--8---------|
B|-5-5-5-5-10-10-10-10------------------8--8--8--8----------8--8--8--8---------|
G|-5-5-5-5-10-10-10-10-7-7-7-7-9-9-7-7--9--9--9--9-9-9-9-9--9--9--9--9-9-9-9-9-| x2
D|-7-7-7-7-10-10-10-10-7-7-7-7-9-9-7-7-10-10-10-10-9-9-9-9-10-10-10-10-9-9-9-9-|
A|-7-7-7-7--8--8--8--8-5-5-5-5-7-7-5-5-10-10-10-10-7-7-7-7-10-10-10-10-7-7-7-7-|
E|-5-5-5-5------------------------------8--8--8--8----------8--8--8--8---------|

"They tell me when I'm sick and dying,
You'll find the sea, just keep trying, keep trying"
e|-5-5-5-5--8--8--8--8------------------8--8--8--8----------8--8--8--8---------|
B|-5-5-5-5-10-10-10-10------------------8--8--8--8----------8--8--8--8---------|
G|-5-5-5-5-10-10-10-10-7-7-7-7-9-9-7-7--9--9--9--9-9-9-9-9--9--9--9--9-9-9-9-9-| x2
D|-7-7-7-7-10-10-10-10-7-7-7-7-9-9-7-7-10-10-10-10-9-9-9-9-10-10-10-10-9-9-9-9-|
A|-7-7-7-7--8--8--8--8-5-5-5-5-7-7-5-5-10-10-10-10-7-7-7-7-10-10-10-10-7-7-7-7-|
E|-5-5-5-5------------------------------8--8--8--8----------8--8--8--8---------|


Outro:
e|-----------------|
B|-----------------|
G|-----------------| x3
D|-------9-----7---|
A|-----7---------5-|
E|-8-8-----0-0-----|

e|--------------------|
B|--------------------|
G|--------------------|
D|-------9-----7------|
A|-----7--------------|
E|-8-8-----0-0---8----|



************************************

| /   slide up
| \   slide down
| h   hammer-on
| p   pull-off
| ~   vibrato
| +   harmonic
| x   Mute note
| .   staccato
| b   Bend
| pb  Pre-bend
| br  Bend release
| pbr Pre-bend release
| brb Bend release bend

************************************    

http://myspace.com/sansaids
Tap to rate this tab
# A B C D E F G H I J K L M N O P Q R S T U V W X Y Z