Song name
# A B C D E F G H I J K L M N O P Q R S T U V W X Y Z

Sansa - Faults In My Armor tab

-------------------------------------------------------------------------
FAULTS IN MY ARMOR - Sansa   official website: www.myspace.com/sansamusic
-------------------------------------------------------------------------
Tabbed by: Kengus                                             Dm = x57765
                                                              Am = x02210
Standard tuning                                                G = 355433
Capo on fourth fret!                                           F = 133211
                                                           FM#11 = 133200
INTRO                                                          C = x32010
Dm  Am  G  F                                             F6add14 = 130210
Dm  Am  G  F

VERSE I
Dm                Am              G                    F
    Don't make me stop, I want to reach up the highest mountain top
Dm             Am                     G                  F
    Wind in my hair, I tell you, more hair going uphill, all sincere
Dm               Am           G             F
    Jump high to free myself,    move on to be myself
    Dm                Am     G                   FM#11 (or plain F)
I'm ready for ups and downs, stands if along the way

CHORUS I (Gtr 1 strums, Gtr 2 picks)
Am   F                C       G        Am
    Faults in my armor, won't let me go
 F                C  G               Am
Faults in my armor,  won't leave me cold
F                 C  G          Am   F
Faults in my armor,  make me whole
   C   G   Dm..
My a-a-a-armor

INTERLUDE
...Am   G     F   Dm   Am   G   F
           My a-armor

VERSE II
Dm             Am               G                        F
    You hit me once, you hit me twice, I am falling down easily
Dm             Am                   G 
    Once I was asleep, now I'm more safe
                  F                   Dm
And I know how to make friends with myself
          Am      G            F         Dm
I have my bad days,  I have my blindness
               Am                G             F
But it doesn't make anyone worth less, doesn't make us less

CHORUS II (Gtr 1 strums, Gtr 2 picks)
Am   F                C       G        Am
    Faults in my armor, won't let me go
 F                C  G               Am
Faults in my armor,  won't leave me cold
F                 C  G          Am   F
Faults in my armor,  make me whole
   C   G   Am
My a-a-a-armor
     F                C       G        Am
    Faults in my armor, won't let me go
 F                C  G               Am
Faults in my armor,  won't leave me cold
F                 C  G          Am   F
Faults in my armor,  make me whole
   C   G   F6add14...
My a-a-a-armor

BRIDGE
...G   Am   G       F6add14      G       Am               G
               Now it all makes sense, I don't need no defence
      F6add14   G               Am       G
It's an endless rising between me and my armor
      F6add14          G            Am       G
It's an everlasting affair between me and my armor

INTERLUDE (Gtr 1 strums, Gtr 2 picks)
                                         Am      F          C       G
e|-----------------------------------------------------------------------|
B|-----1-------0----------1-------0----------1-------0----------1-------0|
G|-------2-------1----------0-------0----------2-------1----------0------|
D|---2-------0-----0----2-------0-----0----2-------0-----0----2-------0--|
A|-0------------------3------------------0------------------3------------|
E|---------1------------------3------------------1------------------3----|

CHORUS
Am   F                C       G        Am
    Faults in my armor, won't let me go
 F                C  G               Am
Faults in my armor,  won't leave me cold
F                 C  G          Am   F
Faults in my armor,  make me whole
   C   G   Am
My a-a-a-armor
     F                C       G        Am
    Faults in my armor, won't let me go
 F                C  G               Am
Faults in my armor,  won't leave me cold
F                 C  G          Am   F
Faults in my armor,  make me whole
   C   G   (Am)
My a-a-a-armor.

=========================================================================

CHORUS I (Gtr 1 & Gtr 2)
   Am      F          C       G          Am      F          C       G
e|-----------------------------------------------------------------------|
B|-----1-------0----------1-------0----------1-------0----------1-------0|
G|-------2-------1----------0-------0----------2-------1----------0------|
D|---2-------0-----0----2-------0-----0----2-------0-----0----2-------0--|
A|-0------------------3------------------0------------------3------------|
E|---------1------------------3------------------1------------------3----|
   Am      F          C       G          Am      F          C       G
e|-----------------------------------------------------------------------|
B|-----1-------0----------1-------0----------1-------0----------1-------0|
G|-------2-------1----------0-------0----------2-------1----------0------|
D|---2-------0-----0----2-------0-----0----2-------0-----0----2-------0--|
A|-0------------------3------------------0------------------3------------|
E|---------1------------------3------------------1------------------3----|

CHORUS II & III (Gtr 1 & Gtr 2)
   Am      F          C       G          Am      F          C       G
e|-----------------------------------------------------------------------|
B|-----1-------0----------1-------0----------1-------0----------1-------0|
G|-------2-------1----------0-------0----------2-------1----------0------|
D|---2-------0-----0----2-------0-----0----2-------0-----0----2-------0--|
A|-0------------------3------------------0------------------3------------|
E|---------1------------------3------------------1------------------3----|
   Am      F          C       G          Am      F          C       G
e|-----------------------------------------------------------------------|
B|-----1-------0----------1-------0----------1-------0----------1-------0|
G|-------2-------1----------0-------0----------2-------1----------0------|
D|---2-------0-----0----2-------0-----0----2-------0-----0----2-------0--|
A|-0------------------3------------------0------------------3------------|
E|---------1------------------3------------------1------------------3----|
   Am      F          C       G          Am      F          C       G
e|-----------------------------------------------------------------------|
B|-----1-------0----------1-------0----------1-------0----------1-------0|
G|-------2-------1----------0-------0----------2-------1----------0------|
D|---2-------0-----0----2-------0-----0----2-------0-----0----2-------0--|
A|-0------------------3------------------0------------------3------------|
E|---------1------------------3------------------1------------------3----|
   Am      F          C       G          Am      F          C       G
e|-----------------------------------------------------------------------|
B|-----1-------0----------1-------0----------1-------0----------1-------0|
G|-------2-------1----------0-------0----------2-------1----------0------|
D|---2-------0-----0----2-------0-----0----2-------0-----0----2-------0--|
A|-0------------------3------------------0------------------3------------|
E|---------1------------------3------------------1------------------3----|

BRIDGE (repeat x4)
  F6add14            G                Am                G
e|-----------------------------------------------------------------------|
B|-----------------------------------------------------------------------|
G|-----2------2----------0------0---------2------2----------0------0-----|
D|---0---0--0---0------0---0--0---0-----2---2--2---2------0---0--0---0---|
A|------------------------------------0------0-------0-------------------|
E|-1------1-------1--3------3-------3-------------------3------3-------3-|
Tap to rate this tab
 
# A B C D E F G H I J K L M N O P Q R S T U V W X Y Z