Song name
# A B C D E F G H I J K L M N O P Q R S T U V W X Y Z

Sansa - Boys Summertime Love tab

-------------------------------------------------------------------------
BOYS (SUMMERTIME LOVE) - Sansa                 www.myspace.com/sansamusic
-------------------------------------------------------------------------
Tabbed by: Kengus

Standard tuning
Capo on third fret!

INTRO
  C     G/B   Am7   Gsus4            F                G
e|------------------------------------------------------------3------|
B|----1-----0-----1-----1-----1----------1-----1----------0---------0|
G|--0-----0-----0-----0-----0-----0----2-----2-----2----0---------0--|
D|------------------------2-----2------------------------------------| x3
A|3-----2-----0----------------------------3-----3----------2---2----|
E|------------------3----------------1----------------3--------------|
   C     G/B   Am7   Gsus4            F                G
e|-------------------------------------------------------------3--------|
B|-----1-----0-----1-----1-----1----------1-----1----------0---------0--|
G|---0-----0-----0-----0-----0-----0----2-----2-----2----0---------0----|
D|-------------------------2-----2--------------------------------------|
A|-3-----2-----0----------------------------3-----3----------2---2------|
E|-------------------3----------------1----------------3----------------|

e|---------3----------------3----------------3--------|
B|-----0---------0------0---------0------0---------0--|
G|---0---------0------0---------0------0---------0----|
D|----------------------------------------------------|
A|-------2---2------------2---2------------2---2------|
E|-3----------------3----------------3----------------|

VERSES (tab x2)
   F/C                               G
e|-----------------------------------------------------------------------|
B|-----1-----1----------1-----1------------------------------------------|
G|---2-----2-----2----2-----2-----2------0-----0----------0-----0--------|
D|-------3-----3----------3-----3------0-----0-----0----0-----0-----0----|
A|-3----------------3----------------------2-----2----------2-----2------|
E|-----------------------------------3----------------3------------------|
   C                Am
e|----------------------------------------------------|
B|-----1-----1----------1-----1----------1-----1------|
G|---0-----0-----0----2-----2-----2----2-----2-----2--|
D|-------2-----2----------2-----2----------2-----2----|
A|-3----------------0----------------0----------------|
E|----------------------------------------------------|

PRE-CHORUSES
  Am/C
e|-----------------------------------------------------------------------|
B|----1-----1---------1-----1---------1-----1---------1-----1---------1--|
G|--2-----2-----2---2-----2-----2---2-----2-----2---2-----2-----2---2----|
D|-----------------------------------------------------------------------|
A|3-----3-----3---3-----3-----3---3-----3-----3---3-----3-----3---3-----3|
E|-----------------------------------------------------------------------|
           G                C                                F/C
e|-----------------------------------------------------------------------|
B|--1---------------------------1-----1---------1-----1----------1-----1-|
G|2-----2------0-----0--------0-----0-----0---0-----0-----0----2-----2---|
D|-----------0-----0-----0--------2-----2---------2-----2----------3-----|
A|----3----------2-----2----3---------------3----------------3-----------|
E|---------3-------------------------------------------------------------|

e|-----------------------------------------------------------------------|
B|---------1-----1----------1-----1----------1-----1----------1-----1----|
G|--2----2-----2-----2----2-----2-----2----2-----2-----2----2-----2-----2|
D|3----------3-----3----------3-----3----------3-----3----------3-----3--|
A|-----3----------------3----------------3----------------3--------------|
E|-----------------------------------------------------------------------|
                   G
e|----------------------------------------------------|
B|----1-----1-----------------------------------------|
G|--2-----2-----2------0-----0---------0-----0--------|
D|------3-----3------0-----0-----0---0-----0-----0----|
A|3----------------------2-----2---------2-----2------|
E|-----------------3---------------3---------------3--|

CHORUSES (same as intro)
  C     G/B   Am7   Gsus4            F                G
e|------------------------------------------------------------3------|
B|----1-----0-----1-----1-----1----------1-----1----------0---------0|
G|--0-----0-----0-----0-----0-----0----2-----2-----2----0---------0--|
D|------------------------2-----2------------------------------------| x3
A|3-----2-----0----------------------------3-----3----------2---2----|
E|------------------3----------------1----------------3--------------|
   C     G/B   Am7   Gsus4            F                G
e|-------------------------------------------------------------3--------|
B|-----1-----0-----1-----1-----1----------1-----1----------0---------0--|
G|---0-----0-----0-----0-----0-----0----2-----2-----2----0---------0----|
D|-------------------------2-----2--------------------------------------|
A|-3-----2-----0----------------------------3-----3----------2---2------|
E|-------------------3----------------1----------------3----------------|

e|---------3----------------3----------------3--------|
B|-----0---------0------0---------0------0---------0--|
G|---0---------0------0---------0------0---------0----|
D|----------------------------------------------------|
A|-------2---2------------2---2------------2---2------|
E|-3----------------3----------------3----------------|

OUTRO (same as intro & choruses)
  C     G/B   Am7   Gsus4            F                G
e|------------------------------------------------------------3------|
B|----1-----0-----1-----1-----1----------1-----1----------0---------0|
G|--0-----0-----0-----0-----0-----0----2-----2-----2----0---------0--|
D|------------------------2-----2------------------------------------| x3
A|3-----2-----0----------------------------3-----3----------2---2----|
E|------------------3----------------1----------------3--------------|
   C     G/B   Am7   Gsus4            F                G
e|-------------------------------------------------------------3--------|
B|-----1-----0-----1-----1-----1----------1-----1----------0---------0--|
G|---0-----0-----0-----0-----0-----0----2-----2-----2----0---------0----|
D|-------------------------2-----2--------------------------------------|
A|-3-----2-----0----------------------------3-----3----------2---2------|
E|-------------------3----------------1----------------3----------------|

e|---------3----------------3----------------3-----------|
B|-----0---------0------0---------0------0---------0-----|
G|---0---------0------0---------0------0---------0-------|
D|-------------------------------------------------------|
A|-------2---2------------2---2------------2---2---------|
E|-3----------------3----------------3----------------3--|

*************************************************************************

INTRO
C  G/B  Am7  Gsus4    F     G    x4

VERSE I
F/C                G             C               Am
Sunshine's down so come to town, set your body free
F/C               G            C               Am
Hold me tight, my love tonight, tell me you believe

PRE-CHORUS
Am/C                                    G     C
 Everybody, summertime love, you'll remember me
F/C                                             G
 Everybody, summertime love, be my lover, be my baby

CHORUS
C    G/B  Am7  Gsus4      F              G
Boys boys boys,       I'm looking for a good time
C    G/B  Am7  Gsus4     F             G
Boys boys boys boys, get ready for my love
C    G/B  Am7  Gsus4  F               G
Boys boys boys,       looking for a good time
C    G/B  Am7  Gsus4    F               G
Boys boys boys boys,  I'm ready for your love

VERSE II
F/C         G                  C                Am
Stay around, the sun goes down,  babe I'm feeling right
F/C                  G                   C                Am
   Take a chance with love, romance, and have some fun tonight

PRE-CHORUS
Am/C                                    G     C
 Everybody, summertime love, you'll remember me
F/C                                             G
 Everybody, summertime love, be my lover, be my baby

CHORUS
C    G/B  Am7  Gsus4      F              G
Boys boys boys,       I'm looking for a good time
C    G/B  Am7  Gsus4     F             G
Boys boys boys boys, get ready for my love
C    G/B  Am7  Gsus4  F               G
Boys boys boys,       looking for a good time
C    G/B  Am7  Gsus4    F                G
Boys boys boys boys,  I'm ready for your love.

OUTRO
C  G/B  Am7  Gsus4    F     G    x4

=========================================================================
Comment, rate, appreciate!
Tap to rate this tab
 
# A B C D E F G H I J K L M N O P Q R S T U V W X Y Z