Song name
# A B C D E F G H I J K L M N O P Q R S T U V W X Y Z

Santa Rm - Me Gusta tab

By: Algefatal (original)

La canción solo usa 4 acordes

       Am               C                G               D
-------0--------|-------0---------|------3-------|-------2-------|
-------1--------|-------1---------|------0-------|-------3-------|
-------2--------|-------0---------|------0-------|-------2-------|
-------2--------|-------2---------|------0-------|-------0-------|
-------0--------|-------3---------|------2-------|-------0-------|
-------0--------|-------0---------|------3-------|-------0-------|

La otra guitarra hace esto
-5-8--15--13-12|-10--8-12-------|-------------|--------------|
---------------|----------------|-------------|--------------|
---------------|----------------|-------------|--------------|
---------------|----------------|-------------|--------------|
---------------|----------------|-------------|--------------|
---------------|----------------|-------------|--------------|


Haca el tutorial
http://www.youtube.com/watch?v=OWa2MR4FdcM
Tap to rate this tab
# A B C D E F G H I J K L M N O P Q R S T U V W X Y Z