Song name
# A B C D E F G H I J K L M N O P Q R S T U V W X Y Z

Santa Rm - Hola Como Te Va tab

By: Algefatal

La primera guitarra hace esto durante toda la canción
----------------|-----------------|----------------|----------------|
-----1--2--2-1-2|-----------------|-----1-2--4-2---|----------------|
----------------|-------3-------5-|----------------|-------3-------5|
---3------------|-----4-------6---|---3------------|-----4-------6--|
-1--------------|---4-------6-----|-1--------------|---4-------6----|
----------------|-2-------4-------|----------------|-2-------4------|

La segunda guitarra hace esto
-8-9--6--8-9--11|-9-8-------------|--------------|---------------|
----------------|-----9----11-11--|------7-6-4-2-|---------------|
----------------|-------8---------|-8-10---------|---------------|
----------------|-----------------|--------------|---------------|
----------------|-----------------|--------------|---------------|
----------------|-----------------|--------------|---------------|

Y esa seria toda la canción! ;)

Mi facebook: 
http://www.facebook.com/pages/Algefatal-original/470384399649424

mi correo; 
alge_fatal@yahoo.com

Youtube: 
http://youtube.com/user/algefatal

http://ale-85.elbruto.es/

Mi twitter: 
https://twitter.com/#!/AlGeFaTaL

Pregúntame algo:
http://ask.fm/AlexisrapAlgeFalrap
Tap to rate this tab
# A B C D E F G H I J K L M N O P Q R S T U V W X Y Z