Guitaretab - guitar tabs
Song name
# A B C D E F G H I J K L M N O P Q R S T U V W X Y Z

Santana Carlos - Smooth tab

t. See http://www.olga.net/faq/ for more information.                     #
#-----------------------------------------------------------------------------#

From: "* jabonn" 
Subject: s/santana_carlos/smooth.tab
Date: Sun, 27 Feb 2000 04:32:58 CST

                                     "SMOOTH"
                                por: carlos santana
                                album: supernatural

   iNTRO:

   e||--------------------------------------------------------------------|
   B||--------------------------------------------------------------------|
   G||-11\12-12-12\14~~~~~--14--16\17--17-16--14-h-16--17--16--14---------|
   D||--------------------------------------------------------------------|
   A||--------------------------------------------------------------------|
   E||--------------------------------------------------------------------|

   Man ....

   e||--------------------------------------------------------------------|
   B||--------------------12----12-14--15^--15^--12------12---------------|
   G||-------------12h14-----14----------------------14-------------------|
   D||-------12h14--------------------------------------------------------|
   A||-12h14--------------------------------------------------------------|
   E||--------------------------------------------------------------------|

   My mu-equita, ......
   e||--------------------------------|
   B||--15^---15^--13---15~~~~--------|
   G||--------------------------------|
   D||--------------------------------|
   A||--------------------------------|
   E||--------------------------------|

   You're my ....
   
   e||---------------------------------------------------------------------|
   B||---15--15--13h15p13-------13-----------------------------------------|
   G||----------------------14------14\12/14-------------------------------|
   D||---------------------------------------------------------------------|
   A||---------------------------------------------------------------------|
   E||---------------------------------------------------------------------|

   BRIDGE:

   e||--------------------------------------------------------------------|
   B||--------------------12h13p12~~~~------------------------------------|
   G||------------12--14--------------------------------------------------|
   D||-12--14--15---------------------------------------------------------|
   A||--------------------------------------------------------------------|
   E||--------------------------------------------------------------------|

   Cause you're so smooth
   
e||----------------------------------------------------------------------|
B||-12h13h15--15^-15^-15^ 15^---13h15--13h15--13h15-13h15---10-----------|
G||----------------------------------------------------------------------|
D||----------------------------------------------------------------------|
A||----------------------------------------------------------------------|
E||----------------------------------------------------------------------|

   CoRoS:
   
e||----------------------------------------------------------------------------|
B||-------------------------------------------------------------15^-15--13--12-|
G||-11\12-12-12\14~~~~~--14--16\17--17-16--14-h-16--17--16--14-----------------|
D||----------------------------------------------------------------------------|
A||----------------------------------------------------------------------------|
E||----------------------------------------------------------------------------|

   I'll tell....

   e||-----------------------|
   B||-----------------------|
   G||--9^ h 7^--------------|
   D||-----------------------|
   A||-----------------------|
   E||-----------------------|

   In every breath ....

   e||--------------------------------------------------|
   B||------------------12--13-12h13-----12-------------|
   G||----------12--14----------------14----------------|
   D||--12--14------------------------------------------|
   A||--------------------------------------------------|
   E||--------------------------------------------------|

   Out from the barrio, ....


   e||------------------------------------------|
   B||--7\10--12--13-12h13--12--10--------------|
   G||------------------------------------------|
   D||------------------------------------------|
   A||------------------------------------------|
   E||------------------------------------------|

   BRIDGE:

   e||--------------------------------------------------------------------|
   B||--------------------12h13p12~~~~------------------------------------|
   G||------------12--14--------------------------------------------------|
   D||-12--14--15---------------------------------------------------------|
   A||--------------------------------------------------------------------|
   E||--------------------------------------------------------------------|

   Cause you're so smooth

   
e||----------------------------------------------------------------------|
B||-12h13h15--15^-15^-15^ 15^---13h15--13h15--13h15-13h15---10-----------|
G||----------------------------------------------------------------------|
D||----------------------------------------------------------------------|
A||----------------------------------------------------------------------|
E||----------------------------------------------------------------------|

  Coro:



++++++++++++++++++++++++++++++++++++++++++++++
dudas o comentarios aclaraciones o correciones
a javier acevedo
jabonn@latinmail.com
[ Tab from: http://www.guitaretab.com/s/santana-carlos/16804.html ]
Smooth chords by Santana Carlos