Guitaretab - guitar tabs
Song name
# A B C D E F G H I J K L M N O P Q R S T U V W X Y Z

Santana - Samba Pa Ti tab

H      = hammer on
P      = Pull off
/ OR \ = Slide
^      = Bend

main theme

e|--------------|--------|-------|-------|
B|-------------8|--------|----6/7|-------|
G|---------7-9--|---5H7--|--7----|-------|
D|--7-9-10------|--------|9------|-------|
A|--------------|--------|-------|-------|
E|--------------|--------|-------|-------|

e|--------------|-----------|------|-------|
B|-------------8|-----------|-6/7--|7H8P7--|
G|---------7-9--|---5H7----7|------|------9|
D|--7-9-10------|--------9--|------|-------|
A|--------------|-----------|------|-------|
E|--------------|-----------|------|-------|


e|--5H7-5H7P5-----|-5--7--------|-5H7P5H7P5-----|----------------|---|
B|------------8-5-|-8^-10^------|-----------8-5-|-8/10-5-5-7-5---|5--|
G|----------------|-------------|---------------|--------------7-|--7|
D|----------------|-------------|---------------|----------------|---|
A|----------------|-------------|---------------|----------------|---|
E|----------------|-------------|---------------|----------------|---|

[ Tab from: http://www.guitaretab.com/s/santana/16802.html ]
e|------------|--|---------|-5H7-5H7P5-5-----------|
B|----------5-|--|----4/5H7|-------------8-8-5-8-8^|
G|--5/4\5H7---|7-|4-7------|-----------------------|
D|------------|--|---------|-----------------------|
A|------------|--|---------|-----------------------|
E|------------|--|---------|-----------------------|

Melody 2

e|----------7|-7-----|-5H7-5H7P5--|-----------|
B|-8-8-8-10--|-10^-7-|-----------8|-7-7-8-10--|
G|-----------|-----9^|------------|-----------|
D|-----------|-------|------------|-----------|
A|-----------|-------|------------|-----------|
E|-----------|-------|------------|-----------|

e|----------7|-7---10--12-|-5H7-5H7P5--|-----------|
B|-8-8-8-10--|-10^-13^-15^|-----------8|-7-7-8-10--|
G|-----------|------------|------------|-----------|
D|-----------|------------|------------|-----------|
A|-----------|------------|------------|-----------|
E|-----------|------------|------------|-----------|

Solo Melody

e|---------3|-5/7|---------3-5|-------|
B|-3-3-3-5--|----|-3-3-3-5----|-3H5P3-|
G|----------|----|------------|-------|
D|----------|----|------------|-------|
A|----------|----|------------|-------|
E|----------|----|------------|-------|
Related for Samba Pa Ti tab
Samba Pa Ti chords by Santana