Song name
# A B C D E F G H I J K L M N O P Q R S T U V W X Y Z

Santana - Into The Night tab

-------------------------------------------------------------------------------
			     SANTANA - INTO THE NIGHT
-------------------------------------------------------------------------------
Tabbed by:guitarguygrant
Email:fuzzynugget@mailinator.com

Tuning:standard

this is probably one of my favorite songs. for this song santana uses the
wah pedal alot so is you dont have one you might consider getting one.
also this song has a couple tricky rythems in the solo, so hang in there! good
luck!LONG LIVE WAFFLES!
LINK-> http://www.youtube.com/watch?v=zqv2bf5Zt88

                           INTO THE NIGHT

e|------------------------------------------------------------------------|
B|--------------------------------8-10-10p8----10-------------------------|
G|----5-5\4---------5h7/9-7-5--9-------------9----7\5-5---------5h7/9---12|
D|-----------7-5----------------------------------------------7-----------|
A|----------------------------------------------------------7-------------|
E|------------------------------------------------------------------------|

e|------------------------------------------------------------------------|
B|------------------------------------------------------------------------|
G|----14------------------------------------------------------------------|
D|--------14/12-12-12--12-12--10\9--7-------------------------------------|
A|---------------------15-15--13\12-10------------------------------------|
E|------------------------------------------------------------------------|
and then you wait untill chad kroeger sings the lines:
how the devil himself could ve pulled out of me.
e|------------------------------------------------------------------------|
B|--------------------------13-8------------------------------------------|
G|-----9-7-5/0------9-12-9-----------9-12-12-12/14~-----------------------|
D|------------------------------------------------------------------------|
A|------------------------------------------------------------------------|
E|------------------------------------------------------------------------|
and wait again until:
the voices rang like the angles sang.
e|--------8888------------------------------------------------------------|
B|------8------10#--------------------------------------------------------|
G|------------------------------------------------------------------------|
D|------------------------------------------------------------------------|
A|------------------------------------------------------------------------|
E|------------------------------------------------------------------------|
wait for: and danced on into the night.
e|-----------------------------------12b-12b------------------------------|
B|-----10h13--10h13-----10h13--10h13-------------15-15-13-12-10-----------|
G|----12-----12--------12-----12------------------------------------------|
D|-----------------------------------------------12-12-10-9--7------------|
A|------------------------------------------------------------------------|
E|------------------------------------------------------------------------|
and wait AGAIN!!! until:
you can tell how it felt from the loook on her face.
e|-----------------------14b#-13-121212-101010-888-101010-----------------|
B|--------------------------------------------------------10#-10/0--------|
G|---9-7----9-7-----------------------------------------------------------|
D|-------10-----10-7------------------------------------------------------|
A|------------------------------------------------------------------------|
E|------------------------------------------------------------------------|

e|--888-101010------------------------------------------------------------|
B|-------------10#-10/0---------------------------------------------------|
G|------------------------------------------------------------------------|
D|------------------------------------------------------------------------|
A|------------------------------------------------------------------------|
E|------------------------------------------------------------------------|
and wait for: the voices rang like the angles sang
e|------8888--------------------------------------------------------------|
B|---8-------10#----------------------------------------------------------|
G|------------------------------------------------------------------------|
D|------------------------------------------------------------------------|
A|------------------------------------------------------------------------|
E|------------------------------------------------------------------------|
wait for: and danced on into the night.
e|-----------------------------------12b-12b------------------------------|
B|-----10h13--10h13-----10h13--10h13-------------15-15-13-12-10-----------|
G|----12-----12--------12-----12------------------------------------------|
D|-----------------------------------------------12-12-10-9--7------------|
A|------------------------------------------------------------------------|
E|------------------------------------------------------------------------|

e|------------------------------------------------------------------------|
B|-----10h13--10h13-----10h13--10h13-------------15-15-13-12-10--8--------|
G|----12-----12--------12-----12------12-12------------------------9------|
D|-----------------------------------------------12-12-10-9--7------------|
A|------------------------------------------------------------------------|
E|------------------------------------------------------------------------|
              SOLO TIME!!!!!
e|-------------------------------------------------------|
B|--10-10-10-10--10-8------------------------------------|
G|--------------------9-7-5-4-2--------------------------|
D|----------------------------------2-0-2----------------|
A|--------------------------------0-------3-5-5-3-2-2-0--|
E|-------------------------------------------------------|

                                v ^ v ^
e|----10-8-7-5--12-10-8-8-7-5---8-8-8-8-10----------8-5--|
B|-10--------------------------------------10--10-8------|
G|-------------------------------------------------------|
D|-------------------------------------------------------|
A|-------------------------------------------------------|
E|-------------------------------------------------------|

e|-12-10-8-8-7-5----10b-8-7-5--12-10b-8-7-5-8-8-8-10b#-----|
B|---------------------------------------------------------|
G|---------------------------------------------------------|
D|---------------------------------------------------------|
A|---------------------------------------------------------|
E|---------------------------------------------------------|

e|-5-5-5-5-5--3-0-------------------8-8-10-5-5-3-5-21--------------------|
B|----------------5-3-1-0------------------------------------------------|
G|------------------------5-5--------------------------------------------|
D|----------------------------7p5-7--------------------------------------|
A|-----------------------------------------------------------------------|
E|-----------------------------------------------------------------------|
and for the thing after that cannt tab,
for the end of the solo he kinda takes his fingers
and slides it up the neck while strumming.
e|------------------------------------------------------------------------|
B|------------------------------------------------------------------------|
G|------------------------------------------------------------------------|
D|------------------------------------------------------------------------|
A|------------------------------------------------------------------------|
E|------------------------------------------------------------------------|
and then you wait for a while untill he says:
the voices rang like the angles sang

e|-----8888---------------------------------------------------------------|
B|---8------10------------------------------------------------------------|
G|------------------------------------------------------------------------|
D|------------------------------------------------------------------------|
A|------------------------------------------------------------------------|
E|------------------------------------------------------------------------|
wait:
and we danced on into the night.
you kinda startas he is saying the words
e|--12-p-off-h-on-to-14-for-a-while---------------------------------------|
B|------------------------------------------------------------------------|
G|------------------------------------------------------------------------|
D|------------------------------------------------------------------------|
A|------------------------------------------------------------------------|
E|------------------------------------------------------------------------|
wait for:and we danced on into the night

e|-----------------------------------12b-12b------------------------------|
B|-----10h13--10h13-----10h13--10h13-------------15-15-13-12-10-----------|
G|----12-----12--------12-----12------------------------------------------|
D|-----------------------------------------------12-12-10-9--7------------|
A|------------------------------------------------------------------------|
E|------------------------------------------------------------------------|

e|------------------------------------------------------------------------|
B|-----10h13--10h13-----10h13--10h13-------------15-15-13-12-10-----------|
G|----12-----12--------12-----12------12-12-------------------------------|
D|-----------------------------------------------12-12-10-9--7------------|
A|------------------------------------------------------------------------|
E|------------------------------------------------------------------------|
youre almost done! at the end of the song do this
e|--------------------------------------------------------------------------|
B|--------14-14-13-12-10-10~#-----------------------------------------------|
G|--------------------------------------------------------------------------|
D|--------------------------------------------------------------------------|
A|--------------------------------------------------------------------------|
E|--------------------------------------------------------------------------|

                    HOPE THIS TAB HELPED! PLEASE RATE!

************************************

| /   slide up
| \   slide down
| h   hammer-on
| p   pull-off
| ~   vibrato
| +   harmonic
| x   Mute note
| b   Bend
| pb  Pre-bend
| br  Bend release
| pbr Pre-bend release
| brb Bend release bend
| # means hold note
************************************
Tap to rate this tab
 
# A B C D E F G H I J K L M N O P Q R S T U V W X Y Z