Song name
# A B C D E F G H I J K L M N O P Q R S T U V W X Y Z

Santana - Apache/smooth tab

Artist: Santana
Album: Grammy awards 1999
Song: Apache/Smooth
Submit: A.Arjomandi


Apache:

E--------------------------------------------------------
B-------8-8-10-8/10-------8/10-8-------------------------
G-7/9-9--------------------------7-7/9-9-----------------
D--------------------------------------------------------
A--------------------------------------------------------
E--------------------------------------------------------


E----------------------------------10-10-12-10/12--------
B-------8-8-10-8/10-------13-13-13-----------------------
G-9-9-9--------------------------------------------------
D--------------------------------------------------------
A--------------------------------------------------------
E--------------------------------------------------------


E--------------------------------------------------------
B----13-12-12/13-12-10-------8/9-7-----------------------
G-12-------------------------------7-9-9-----------------
D--------------------------------------------------------
A--------------------------------------------------------
E--------------------------------------------------------


E------------------------------8-10-8-10-10-10-12-10/12--
B---13-12-10----10-13-10---------------------------------
G-9----------12------------------------------------------
D--------------------------------------------------------
A--------------------------------------------------------
E--------------------------------------------------------


E--------------------------------------------------------
B-8/10-8-------------------------------------------------
G--------7-7/9-7-------7/9-7-----------------------------
D----------------------------7/10-10.........Smooth......
A--------------------------------------------------------
E--------------------------------------------------------
Tap to rate this tab
# A B C D E F G H I J K L M N O P Q R S T U V W X Y Z